Simple Plan - Im Just A Kid Chords & Tabs

 

Im Just A Kid Chords & Tabs

Simple Plan Chords & Tabs

Version: 8 Type: Tab 0 ratings
1 star 2 stars 3 stars 4 stars 5 stars
comments

Im Just A Kid Tab

Intro
   X3
e|---------------------------|----------------------------------|
B|---------------------------|----------------------------------|
G|---6------6-------6------6-|-------6--------6--------6-5------|
D|--------6-------6------6---|-----6--------6--------6----(6)---|
A|-4-------------------------|---4--------4--------4------------|
D|------4-------6------4-----|-3--------4--------6----------(6)-|


e|--------------------------|
B|--------------------------|
G|--------4--------4--------|
D|---1--4--------4--------4-|
A|-------------6--------6---|
D|-1---------4--------6-----|


Chorus

e|--------------------------------|--------------------------------|
B|--------------------------------|--------------------------------|
G|-6-6-6-------------------6--6-6-|-6-6-6--------------------------|
D|-6-6-6--4--4-4--4-6-6-6--6--6-6-|-6-6-6--4--4-4--4-6-6-6--4--4-4-|
A|-4-4-4--4--4-4--4-6-6-6--4--4-4-|-4-4-4--4--4-4--4-6-6-6--4--4-4-|
D|-6-6-6--4--4-4--4-6-6-6--6--6-6-|-6-6-6--4--4-4--4-6-6-6--4--4-4-|


e|--------------------------------|--------------------------------|
B|--------------------------------|--------------------------------|
G|------------------6-6-6---------|--------------------------------|
D|-1-1-1--4--4-4--4-6-6-6--6--6-6-|-1-1-1--4--4-4--4-6-6-6-6-6-6-6-|
A|-1-1-1--4--4-4--4-4-4-4--6--6-6-|-1-1-1--4--4-4--4-6-6-6-6-6-6-6-|
D|-1-1-1--4--4-4--4-6-6-6--6--6-6-|-1-1-1--4--4-4--4-6-6-6-6-6-6-6-|


VERSE
[ Tab from: http://www.guitartabs.cc/tabs/s/simple_plan/im_just_a_kid_tab_ver_8.html ]
               pm.................................
            e|------------------------------------|
            B|------------------------------------|
-Intro +    G|-6-6-6-6----------------------------|
            D|-6-6-6-6--4-4-4-4--6-6-6-6--4-4-4-4-|
            A|-4-4-4-4--4-4-4-4--6-6-6-6--4-4-4-4-|
            D|-6-6-6-6--4-4-4-4--6-6-6-6--4-4-4-4-|

   pm..............
e|----------------------------|
B|----------------------------|
G|----------------------------|
D|-1-1-1-1--4-4-4-4---6--6--6-|
A|-1-1-1-1--4-4-4-4---6--6--6-|
D|-1-1-1-1--4-4-4-4---6--6--6-|


- Chorus
     +
   What the fuck is wrong with me...
e|------------------------------------------------------------|
B|------------------------------------------------------------|
G|-------------------------------6-6-6-6-6--------------------|
D|-4-4-4-4-4-4-4---6-6-6-6-6-6---6-6-6-6-6---6--4-4-4-4---6-4-|
A|-4-4-4-4-4-4-4---6-6-6-6-6-6---4-4-4-4-4---6--4-4-4-4---6-4-|
D|-4-4-4-4-4-4-4---6-6-6-6-6-6---6-6-6-6-6---6--4-4-4-4---6-4-|


e|------------------------------------------------------|
B|------------------------------------------------------|
G|--------------------------6-6-6-6-6-------------------|
D|-4-4-4-4-4-4-4---6-6-6----6-6-6-6-6---1-1-1-1-1-----6-|
A|-4-4-4-4-4-4-4---6-6-6----4-4-4-4-4---1-1-1-1-1-----6-|
D|-4-4-4-4-4-4-4---6-6-6----6-6-6-6-6---1-1-1-1-1-----6-|


- Intro
- Chorus


Outro

e|-------------------------------------------------|
B|-------------------------------------------------|
G|-----------------------------------6-6-6-6-6-6-6-|
D|-4-4-4-4-4-4-4-4--6-6-6-6-6-6-6-6--6-6-6-6-6-6-6-|
A|-4-4-4-4-4-4-4-4--6-6-6-6-6-6-6-6--4-4-4-4-4-4-4-|
D|-4-4-4-4-4-4-4-4--6-6-6-6-6-6-6-6--6-6-6-6-6-6-6-|


e|--------------------------------------------------------------|
B|--------------------------------------------------------------|
G|------------------------------------------------------6-------|
D|-8-8-8-8-8-8-8-8---4-4-4-4-4-4-4-4---6-6-6-6-6-6-6-6--6--6--4-|
A|-8-8-8-8-8-8-8-8---4-4-4-4-4-4-4-4---6-6-6-6-6-6-6-6--4--6--4-|
D|-8-8-8-8-8-8-8-8---4-4-4-4-4-4-4-4---6-6-6-6-6-6-6-6--6--6--4-|
Comments