Simple Plan - Im Just A Kid Chords & Tabs

 

Im Just A Kid Chords & Tabs

Simple Plan Chords & Tabs

Version: 7 Type: Tab 0 ratings
1 star 2 stars 3 stars 4 stars 5 stars
comments

Im Just A Kid Tab

Band: Simple Plan
Song: I'm just a kid
Tabbed By: FaTSkUnK
Retabbed By: TooZe
Sorry, man. There were just too many mistakes...


Drop D tuning


1. Intro:
e|---------------------------|----------------------------------|
B|---------------------------|----------------------------------|
G|---6------6-------6------6-|-------6--------6--------6-5------|   <- first
D|--------6-------6------6---|-----6--------6--------6----(6)---|      part x3
A|-4-------------------------|---4--------4--------6-------(6)--|
D|------4-------6------4-----|-3--------4--------6----------(6)-|


e|--------------------------|
B|--------------------------|
G|--------4--------4--------|  <- Not sure about this
D|---1--4--------4--------4-|
A|-------------6--------6---|
D|-1---------4--------6-----|



2. Chorus: ("I'm just a kid..")
e|------------------------------------|------------------------------------|
B|------------------------------------|------------------------------------|
G|-6-6-6-6----------------------------|-6-6-6-6----------------------------|
D|-6-6-6-6--4-4-4-4--6-6-6-6--6-6-6-6-|-6-6-6-6--4-4-4-4--6-6-6-6--4-4-4-4-|
A|-4-4-4-4--4-4-4-4--6-6-6-6--6-6-6-6-|-4-4-4-4--4-4-4-4--6-6-6-6--4-4-4-4-|
D|----------4-4-4-4--6-6-6-6--6-6-6-6-|----------4-4-4-4--6-6-6-6--4-4-4-4-|


e|------------------------------------|------------------------------|
B|------------------------------------|------------------------------|
G|-------------------6-6-6-6----------|------------------------------|
D|-1-1-1-1--4-4-4-4--6-6-6-6--6-6-6-6-|-1-1-1-1--4-4-4-4--6-6-6-6--6-|       
A|-1-1-1-1--4-4-4-4--4-4-4-4--6-6-6-6-|-1-1-1-1--4-4-4-4--6-6-6-6--6-|
D|-1-1-1-1--4-4-4-4-----------6-6-6-6-|-1-1-1-1--4-4-4-4--6-6-6-6--6-|
The first half here is repeated some more times later in the song. just beware..



3. VERSE: (starts with first half of intro alone)
[ Tab from: http://www.guitartabs.cc/tabs/s/simple_plan/im_just_a_kid_tab_ver_7.html ]
Guitar 1: Intro		Guitar 2:
			e|------------------------------------|
			B|------------------------------------|
			G|-6-6-6-6----------------------------|    4x
			D|-6-6-6-6--4-4-4-4--6-6-6-6--4-4-4-4-|
			A|-4-4-4-4--4-4-4-4--6-6-6-6--4-4-4-4-|
			D|----------4-4-4-4--6-6-6-6--4-4-4-4-|


			e|-------------------------|
			B|-------------------------|
			G|-------------------------|
			D|-1-1-1-1--4-4-4-4--6-6-6-|
			A|-1-1-1-1--4-4-4-4--6-6-6-|
			D|-1-1-1-1--4-4-4-4--6-6-6-|


4. CHORUS ("I'm just a kid..")


5. "What the fuck is wrong with me.."
e|---------------------------------------------------------------|
B|---------------------------------------------------------------|
G|---------------------------------6-6-6-6-6-6-6-6-------------6-|
D|-4-4-4-4-4-4-4-6--6-6-6-6-6-6-6--6-6-6-6-6-6-6-6--4-4-4-4--4-6-|
A|-4-4-4-4-4-4-4-6--6-6-6-6-6-6-6--4-4-4-4-4-4-4-4--4-4-4-4--4-4-|
D|-4-4-4-4-4-4-4-6--6-6-6-6-6-6-6-------------------4-4-4-4--4---|


e|-----------------------------------------------------|
B|-----------------------------------------------------|
G|-------------------------6-6-6-6---------------------|
D|-4-4-4-4-4-4-4-6--6-6-6--6-6-6-6--1-1-1-1-1-1-1-1--6-|
D|-4-4-4-4-4-4-4-6--6-6-6--4-4-4-4--1-1-1-1-1-1-1-1--6-|
D|-4-4-4-4-4-4-4-6--6-6-6-----------1-1-1-1-1-1-1-1--6-|


6. INTRO

7. CHORUS


8. Outro:
e|--------------------------------------------------------------------|
B|--------------------------------------------------------------------|
G|-----------------------------------6-6-6-6-6-6-6-6------------------|
D|-4-4-4-4-4-4-4-4--6-6-6-6-6-6-6-6--6-6-6-6-6-6-6-6--8-8-8-8-8-8-8-8-|
A|-4-4-4-4-4-4-4-4--6-6-6-6-6-6-6-6--4-4-4-4-4-4-4-4--8-8-8-8-8-8-8-8-|
D|-4-4-4-4-4-4-4-4--6-6-6-6-6-6-6-6-------------------8-8-8-8-8-8-8-8-|


e|-------------------------------------------|
B|-------------------------------------------|
G|-----------------------------------6-------|
D|-4-4-4-4-4-4-4-4--6-6-6-6-6-6-6-6--6--6--4-|
A|-4-4-4-4-4-4-4-4--6-6-6-6-6-6-6-6--4--6--4-|
D|-4-4-4-4-4-4-4-4--6-6-6-6-6-6-6-6-----6--4-|
Comments