Simple Plan - Im Just A Kid Chords & Tabs

 

Im Just A Kid Chords & Tabs

Simple Plan Chords & Tabs

Version: 5 Type: Tab 1 rating
1 star 2 stars 3 stars 4 stars 5 stars
comments

Im Just A Kid Tab

Song: I'm Just A Kid
Band: Simple Plan
CD: No Pads, No Helmets…Just Balls
Tabbed By: David Huzyk

Ok no one has tabbed it here yet so im gonna do it. this is as close as your gonna get to the real thing too.

Drop D Tuning (DADGBe)

Intro (Guitar 1)
|----------------------|              |-----------------------------------------------------|
|----------------------|              |-----------------------------------------------------|
|---6----6----6------6-| X3 then this |------6-------6-------6-5-------------4------4-------|
|-------6-------6---6--|              |----6-------6-------6-----6------1--4------4-------4-|
|-4--------------------|              |--4-------4-------4-----------------------6-------6--|
|-----4-----6-----4----|              |-3------4-------6-----------6-1----------4-------6---|

Chorus (Guitar 1& 2)
|---------------------------------------------------------------------------------------------------------------------------------------|
|---------------------------------------------------------------------------------------------------------------------------------------|
|-6-6-6-------------------6--6-6--6-6-6---------------------------------------------6-6-6-6---------------------------------------------|
|-6-6-6--4--4-4-4--6-6-6--6--6-6--6-6-6--4--4-4-4--6-6-6--4--4--4--1-1-1--4--4-4-4--6-6-6-6--6-6-6-6--1-1-1-1--4-4-4-4--6-6-6-6-6-6-6-6-|
|-4-4-4--4--4-4-4--6-6-6--4--4-4--4-4-4--4--4-4-4--6-6-6--4--4--4--1-1-1--4--4-4-4--4-4-4-4--6-6-6-6--1-1-1-1--4-4-4-4--6-6-6-6-6-6-6-6-|
|--------4--4-4-4--6-6-6-----------------4--4-4-4--6-6-6--4--4--4--1-1-1--4--4-4-4-----------6-6-6-6--1-1-1-1--4-4-4-4--6-6-6-6-6-6-6-6-|
[ Tab from: http://www.guitartabs.cc/tabs/s/simple_plan/im_just_a_kid_tab_ver_5.html ]
Verse
(Guitar 1 plays intro palm muting all stings except G, Guitar 2 plays this)
|------------------------------------|               |-----------------------------------|
|------------------------------------|               |-----------------------------------|
|-6-6-6-6----------------------------| X3, then this |-----------------------------------| X2, but 2nd time stop at 4 strums on the last chord
|-6-6-6-6--4-4-4-4--6-6-6-6--4-4-4-4-|               |-1-1-1-1--4-4-4-4--6-6-6-6-6-6-6-6-|  
|-4-4-4-4--4-4-4-4--6-6-6-6--4-4-4-4-|               |-1-1-1-1--4-4-4-4--6-6-6-6-6-6-6-6-|      
|----------4-4-4-4--6-6-6-6--4-4-4-4-|               |-1-1-1-1--4-4-4-4--6-6-6-6-6-6-6-6-|
pm...................................                 ...................................

(Play Chorus Again)

Interlude (Guitar 1& 2)
|------------------------------------------------------------------------------------------------------------------------|
|------------------------------------------------------------------------------------------------------------------------|
|-----------------------------------6-6-6-6-6-6-6-6----------------------------------6-6-6-6-6-6-6-6---------------------|
|-4-4-4-4-4-4-4-4--6-6-6-6-6-6-6-6--6-6-6-6-6-6-6-6--4-4-4-4--6--4--4-4-4-4-4-4-4-4--6-6-6-6-6-6-6-6--1-1-1-1-1-1-1-1--6-|
|-4-4-4-4-4-4-4-4--6-6-6-6-6-6-6-6--4-4-4-4-4-4-4-4--4-4-4-4--6--4--4-4-4-4-4-4-4-4--4-4-4-4-4-4-4-4--1-1-1-1-1-1-1-1--6-|
|-4-4-4-4-4-4-4-4--6-6-6-6-6-6-6-6-------------------4-4-4-4--6--4--4-4-4-4-4-4-4-4-------------------1-1-1-1-1-1-1-1--6-|

(Play Intro Again 5 times but stop halfway through the 5th time)

(Play Chorus Again, repeating some parts. Listen to the song and figure it out)

Outro (Guitar 1 & 2)
|---------------------------------------------------------------------------------------------------------------|
|---------------------------------------------------------------------------------------------------------------|
|-----------------------------------6-6-6-6-6-6-6-6-----------------------------------------------------6-------|
|-4-4-4-4-4-4-4-4--6-6-6-6-6-6-6-6--6-6-6-6-6-6-6-6--8-8-8-8-8-8-8-8--4-4-4-4-4-4-4-4--6-6-6-6-6-6-6-6--6--6--4-|
|-4-4-4-4-4-4-4-4--6-6-6-6-6-6-6-6--4-4-4-4-4-4-4-4--8-8-8-8-8-8-8-8--4-4-4-4-4-4-4-4--6-6-6-6-6-6-6-6--4--6--4-|
|-4-4-4-4-4-4-4-4--6-6-6-6-6-6-6-6-------------------8-8-8-8-8-8-8-8--4-4-4-4-4-4-4-4--6-6-6-6-6-6-6-6-----6--4-|

And Thats it! Its not 100% but its very accurate. If theres any questions/comments e-mail me at Babaca_WIN_69@hotmail.com





Comments