Simple Plan - Im Just A Kid Chords & Tabs

 

Im Just A Kid Chords & Tabs

Simple Plan Chords & Tabs

Version: 14 Type: Tab 0 ratings
1 star 2 stars 3 stars 4 stars 5 stars
comments

Im Just A Kid Tab

-------------------------|
----3-----3-----3-----3--|
--------2-----2-----2----|   5x
--0----------------------|
------------0------------|
------3-----------3------|
I woke at seven, waited till eleven...

---------------------------------------------------|
--------3-------3-------3-2-------0-------0--------|
------2-------2-------2---------0-------0-------2--|
----0-------0-------2---------2-------0-------2----|
------------------0-------------------------0------|
--2-------3-----------------0-------3--------------|
Once another night all alone..

-----------------------------------------------------------|
-----------------------------------------------------------|
--7-7-7-----------------------7-7-7------------------------|
--7-7-7-5-5-5-5-7-7-7-7-7-7-7-7-7-7-5-5-5-5-7-7-7-5-5-5-5--|
--5-5-5-5-5-5-5-7-7-7-7-7-7-7-5-5-5-5-5-5-5-7-7-7-5-5-5-5--|
--------3-3-3-3-5-5-5-5-5-5-5-------3-3-3-3-5-5-5-3-3-3-3--|
 I'm just a kid and life is a nightmare...

-----------------------------------------------------------|
-----------------------------------------------------------|
----------------7-7-7--------------------------------------|
--2-2-2-5-5-5-5-7-7-7-7-7-7-7-2-2-2-2-5-5-5-5-7-7-7-7-7----|
--2-2-2-5-5-5-5-5-5-5-7-7-7-7-2-2-2-2-5-5-5-5-7-7-7-7-7----|
--0-0-0-3-3-3-3-------5-5-5-5-0-0-0-0-3-3-3-3-5-5-5-5-5----|
Nobody cares 'cause I'm alone in the world...

-------------------------|
----3-----3-----3-----3--|
--------2-----2-----2----|   5x
--0----------------------|
------------0------------|
------3-----------3------|
And maybe when the night is dead, ill crawl into my bed...

---------------------------------------------------|
--------3-------3-------3-2-------0-------0--------|
------2-------2-------2---------0-------0-------2--|
----0-------0-------2---------2-------0-------2----|
------------------0-------------------------0------|
--2-------3-----------------0-------3--------------|
Everyone's got somewhere to go...

-----------------------------------------------------------|
-----------------------------------------------------------|
--7-7-7-----------------------7-7-7------------------------|
--7-7-7-5-5-5-5-7-7-7-7-7-7-7-7-7-7-5-5-5-5-7-7-7-5-5-5-5--|
--5-5-5-5-5-5-5-7-7-7-7-7-7-7-5-5-5-5-5-5-5-7-7-7-5-5-5-5--|
--------3-3-3-3-5-5-5-5-5-5-5-------3-3-3-3-5-5-5-3-3-3-3--|
I'm just a kid and life is a night mare...

-----------------------------------------------------------|
-----------------------------------------------------------|
----------------7-7-7--------------------------------------|
--2-2-2-5-5-5-5-7-7-7-7-7-7-7-2-2-2-2-5-5-5-5-7-7-7-7-7----|
--2-2-2-5-5-5-5-5-5-5-7-7-7-7-2-2-2-2-5-5-5-5-7-7-7-7-7----|
--0-0-0-3-3-3-3-------5-5-5-5-0-0-0-0-3-3-3-3-5-5-5-5-5----|
Nobody cares 'cause I'm alone in the world...
[ Tab from: http://www.guitartabs.cc/tabs/s/simple_plan/im_just_a_kid_tab_ver_14.html ]
------------------------------------------------------------|
------------------------------------------------------------|
------------------------------7-7-7-7-7-7-7-----------------|
--5-5-5-5-5-5-5-7-7-7-7-7-7-7-7-7-7-7-7-7-7-9-9-9-9-9-9-9---|
--5-5-5-5-5-5-5-7-7-7-7-7-7-7-5-5-5-5-5-5-5-9-9-9-9-9-9-9---|
--3-3-3-3-3-3-3-5-5-5-5-5-5-5---------------7-7-7-7-7-7-7---|
What the Hell is wrong with me, Don't fit in with anybody...

------------------------------------------------------------|
------------------------------------------------------------|
------------------------------7-7-7-7-7-7-7-----------------|
--5-5-5-5-5-5-5-7-7-7-7-7-7-7-7-7-7-7-7-7-7-9-9-9-9-9-9-9---|
--5-5-5-5-5-5-5-7-7-7-7-7-7-7-5-5-5-5-5-5-5-9-9-9-9-9-9-9---|
--3-3-3-3-3-3-3-5-5-5-5-5-5-5---------------7-7-7-7-7-7-7---|
Wide awake I'm bored and I cant fall asleep...

I'm just a kid, I'm just a kid, I'm just a kid...
-------------------------|
----3-----3-----3-----3--|
--------2-----2-----2----|   5x
--0----------------------|
------------0------------|
------3-----------3------|
I'm just a kid, I'm just a kid, I'm just a kid...

-----------------------------------------------------------|
-----------------------------------------------------------|
--7-7-7-----------------------7-7-7------------------------|
--7-7-7-5-5-5-5-7-7-7-7-7-7-7-7-7-7-5-5-5-5-7-7-7-5-5-5-5--|
--5-5-5-5-5-5-5-7-7-7-7-7-7-7-5-5-5-5-5-5-5-7-7-7-5-5-5-5--|
--------3-3-3-3-5-5-5-5-5-5-5-------3-3-3-3-5-5-5-3-3-3-3--|
I'm just a kid, and life is a nightmare...

-----------------------------------------------------------|
-----------------------------------------------------------|
----------------7-7-7--------------------------------------|
--2-2-2-5-5-5-5-7-7-7-7-7-7-7-2-2-2-2-5-5-5-5-7-7-7-7-7----|
--2-2-2-5-5-5-5-5-5-5-7-7-7-7-2-2-2-2-5-5-5-5-7-7-7-7-7----|
--0-0-0-3-3-3-3-------5-5-5-5-0-0-0-0-3-3-3-3-5-5-5-5-5----|
Nobody cares 'cause I alone in the world and...

-----------------------------------------------------------|
-----------------------------------------------------------|
--7-7-7-----------------------7-7-7------------------------|
--7-7-7-5-5-5-5-7-7-7-7-7-7-7-7-7-7-5-5-5-5-7-7-7-5-5-5-5--|
--5-5-5-5-5-5-5-7-7-7-7-7-7-7-5-5-5-5-5-5-5-7-7-7-5-5-5-5--|
--------3-3-3-3-5-5-5-5-5-5-5-------3-3-3-3-5-5-5-3-3-3-3--|
I'm just a kid, and Life is a nightmare...

-----------------------------------------------------------|
-----------------------------------------------------------|
----------------7-7-7--------------------------------------|
--2-2-2-5-5-5-5-7-7-7-7-7-7-7-2-2-2-2-5-5-5-5-7-7-7-7-7----|
--2-2-2-5-5-5-5-5-5-5-7-7-7-7-2-2-2-2-5-5-5-5-7-7-7-7-7----|
--0-0-0-3-3-3-3-------5-5-5-5-0-0-0-0-3-3-3-3-5-5-5-5-5----|
Nobody cares 'cause I'm alone in the world and...

-----------------------------------------------------------|
-----------------------------------------------------------|
------------------------------7-7-7-7-7-7-7----------------|
--5-5-5-5-5-5-5-7-7-7-7-7-7-7-7-7-7-7-7-7-7-9-9-9-9-9-9-9--|
--5-5-5-5-5-5-5-7-7-7-7-7-7-7-5-5-5-5-5-5-5-9-9-9-9-9-9-9--|
--3-3-3-3-3-3-3-5-5-5-5-5-5-5---------------7-7-7-7-7-7-7--|
Nobody cares 'cause I'm alone in the world and...

----------------------------------------------------|
----------------------------------------------------|
----------------------------------------------7-----|
--5-5-5-5-5-5-5-5-5-5-5-7-7-7-7-7-7-7-7-7-7-7-7-7-5-|
--5-5-5-5-5-5-5-5-5-5-5-7-7-7-7-7-5-7-7-7-7-7-5-7-5-|
--3-3-3-3-3-3-3-3-3-3-3-5-5-5-5-5-5-55-5-5-5---5-3-|
Tonight, I'm all alone tonight...
Comments