Simple Plan - Im Just A Kid Chords & Tabs

 

Im Just A Kid Chords & Tabs

Simple Plan Chords & Tabs

Version: 1 Type: Tab 2 ratings
1 star 2 stars 3 stars 4 stars 5 stars
comments

Im Just A Kid Tab

bY:stevn verrilli
Title: I'm just a kid
Group: simple plan

chorus i did not get yet but i'm working on it. have fun goes it's all right


[ Tab from: http://www.guitartabs.cc/tabs/s/simple_plan/im_just_a_kid_tab.html ]
E:-------------------------------------------------------------------
B:-------------------------------------------------------------------
G:-------------------------------------------------------------------
D:-----------9-------9-------9-----------9---------------------------
A:------7------------------------------------------------------------
E:--------------55--------7-------55---------------------------------


Verse:

Repeat this the way the song goes.


E:-------------------------------------------------------------------
B:-------------------------------------------------------------------
G:-------------------------------------------------------------------
D:-----------9-------9-------9-----------9---------------------------
A:------77------------------------------------------------------------
E:--------------55--------77-------55---------------------------------

"And when the night is dead i'll crall into my bed stary........"
Comments