Simple Plan - Im Just A Kid Chords & Tabs

 

Im Just A Kid Chords & Tabs

Simple Plan Chords & Tabs

Version: 4 Type: Bass Tab 0 ratings
1 star 2 stars 3 stars 4 stars 5 stars
comments

Im Just A Kid Bass Tab

   
--------------------------------------------------------------------------------
                        I'm Just A Kid - Simple Plan
--------------------------------------------------------------------------------

Artist: Simple Plan
Song: I'm Just A Kid (Track 4)
Albulm: No Pads, No Helmets,....Just Balls
Tunning: Half Step Down Eb, Ab, Db, Gb,
Tabbed by Zero is Great Man

The Intro and first verse are Guitar only parts.  
The bass comes in on the first chorus.

Chorus: "I'm just a kid, and life is a nightmare..."
Gb|-----------------------------------|
Db|-----------------------------------|
Ab|-5-5-5-----------------------------|
Eb|--------3-3-3-3--/5-5-5-5--3-3-3-3-|

Chorus Part 2: "Nobody cares 'cause I'm alone and the world is..."
Gb|----------------------------|
Db|----------------------------|
Ab|-----------------5-5-5------|
Eb|-0-0-0--3-3-3-3---------5-5-|

Chorus Part 3: "...having more fun then me..."
Gb|---------------------------|
Db|---------------------------|
Ab|---------------------------|
Eb|-0-0-0--3-3-3-3--5-5-5-5-5-|

Stop for the little guitar fill and the words "Tongiht..."
[ Tab from: http://www.guitartabs.cc/tabs/s/simple_plan/im_just_a_kid_btab_ver_4.html ]
Verse 2: "And maybe when the night is dead..."
Gb|------------------------------------|
Db|------------------------------------|
Ab|-5-5-5-5----------------------------|
Eb|----------3-3-3-3--5-5-5-5--3-3-3-3-|

Pre - Chorus: "And there gonna leave me here on my own..."
Gb|----------------------|
Db|----------------------|
Ab|----------------------|
Eb|-3-3-3-3-3-3-3--5-5-5-|

Repeat the chorus

Bridge: "What the fuck is wrong with me?..."
Gb|------------------------------------------------------|
Db|------------------------------------------------------|
Ab|------------------------------------------------------|
Eb|-3-3-3-3-3-3-3--5-5-5-5-5-5--0-0-0-0-0-0--5-5-5-5-5-5-|

Interlude is played only by guitar

Repeat Chorus

Outro: "Tonight...I'm all alone tonight..."
Gb|------------------------------------------|
Db|------------------------------------------|
Ab|---------------5(x8)----------------------|
Eb|-3(x8)--5(x8)---------7(x8)--3(x8)--5(x8)-|

Finale: "Tonight."
Gb|-------------|
Db|-0~----------|
Ab|-----0~------|
Eb|---------3~--|

| ~  Vibrato
| /  Slide Up
| \  Slide Down

================================================================================
Comments