Simple Plan - Im Just A Kid Chords & Tabs

 

Im Just A Kid Chords & Tabs

Simple Plan Chords & Tabs

Version: 2 Type: Bass Tab 0 ratings
1 star 2 stars 3 stars 4 stars 5 stars
comments

Im Just A Kid Bass Tab

Start Playing at 0:26

Verse 1 ::Chorus::

G---------------------------------------------------------|
D---------------------------------------------------------|
A-4-4-4-----------------------4-4-4-----------------------|
E--------2-2-2--4-4-4--4-4-4---------2-2-2--4-4-4--2-2-2--|

2nd Part ::Chorus::

G---------------------------------------------------------|
D---------------------------------------------------------|
A--------------4-4-4-4------------------------------------|
E0-0-0-2-2-2-2--------4-4-4-4--0-0-0--2-2-2-2--4-4-4-4-4-4|

Verse 2

G---------------------------------|
D---------------------------------|
A-4-4-4-4-------------------------|
E----------2-2-2-2-4-4-4-4--4-4-4-|

G---------------------------------------------------------
D---------------------------------------------------------
A-4-4-4-4------------------------4-4-4--------------------
E----------2-2-2-2-4-4-4--4-4-4---------2-2-2-2-4-4-4-4---
[ Tab from: http://www.guitartabs.cc/tabs/s/simple_plan/im_just_a_kid_btab_ver_2.html ]
G-------|--------------------------------------------
D-------|--------------------------------------------
A-------|--------------------------------------------
E-4-4-4-|-1-1-1-1--2-2-2-2--4-4-4-4-4-4-4-4--0-0-0-0-

G----------------|
D----------------|
A----------------|
E-2-2-2-2--4-4-4-|

Play all of Chorus 1 time them play this...

G---------------------------------------------------------|
D---------------------------------------------------------|
A---------------------------------------------------------|
E-2-2-2-2-2-2-2-4--4-4-4-4-4-4-4--1-1-1-1--1-4-2--2-2-2-2-|

G-----------------------------------------------------|
D-----------------------------------------------------|
A-4------------------------4-4-4-4--------------------|
E----2-2-2-2-2-2-2-4--4-4----------0-0-0-0-0-0-0-0-4--|

Rest until 2:06 then go back to Chorus, play 2 times then repeat 2nd part of
Chorus once.  Play Verse 1 ::Chorus:: 2 times until last three beats.
Then play:

G----------|
D----------|
A-4--------|
E---4-2----|
Comments