Simple Plan - Im Just A Kid Chords & Tabs

 

Im Just A Kid Chords & Tabs

Simple Plan Chords & Tabs

Version: 1 Type: Bass Tab 0 ratings
1 star 2 stars 3 stars 4 stars 5 stars
comments

Im Just A Kid Bass Tab

hope this makes sence... =p any questions or comments my addy is im_such_a_kinky_babe@hotmail.com & thanx!*!  

~* make sure to change notes accordingly*~

start playing at 0:26...

Verse 1 ((chorus))  
F#--------------------------------------------------------|
C#--------------------------------------------------------|
G#-5-5-5-----------------------5-5-5----------------------|
Eb--------3-3-3--5-5-5--5-5-5---------3-3-3--5-5-5--3-3-3-|

2nd part of chorus
F#---------------------------------------------------------|
C#---------------------------------------------------------|
G#--------------5-5-5-5------------------------------------|
Eb0-0-0-3-3-3-3--------5-5-5-5--0-0-0--3-3-3-3--5-5-5-5-5-5|

Verse 2 (u can palm mute or just play it low)

F#---------------------------------|
C#---------------------------------|
G#-5-5-5-5-------------------------|
Eb----------3-3-3-3-5-5-5-5--5-5-5-|
[ Tab from: http://www.guitartabs.cc/tabs/s/simple_plan/im_just_a_kid_btab.html ]
F#----------------------------------------------------------
C#----------------------------------------------------------
G#-5-5-5-5--------------------------5-5-5-------------------
Eb----------3-3-3-3-5-5-5-5--5-5-5---------3-3-3-3-5-5-5-5--

F#-------|--------------------------------------------
C#-------|--------------------------------------------
G#-------|--------------------------------------------
Eb-5-5-5-|-2-2-2-2--3-3-3-3--5-5-5-5-5-5-5-5--0-0-0-0-

F#----------------|
C#----------------|
G#----------------|
Eb-3-3-3-3--5-5-5-|

Play all of chorus 1 time then play this...

F#---------------------------------------------------------
C#---------------------------------------------------------
G#---------------------------------------------------------
Eb-3-3-3-3-3-3-3-5--5-5-5-5-5-5-5--2-2-2-2--2-5-3--3-3-3-3-

F#----------------------------------------------------|
C#----------------------------------------------------|
G#-5------------------------5-5-5-5-------------------|
Eb----3-3-3-3-3-3-3-5--5-5----------0-0-0-0-0-0-0-0-5-|

Rest until 2:06 then go back to chorus, play 2 times then repeat 2nd part of chorus once. 
Play Verse 1 ((chorus)) 2 times until it's over  =)  thats it! (jOdY)
Comments