Simple Plan - Ill Meet You There Chords & Tabs

 

Ill Meet You There Chords & Tabs

Simple Plan Chords & Tabs

Version: 1 Type: Tab 0 ratings
1 star 2 stars 3 stars 4 stars 5 stars
comments

Ill Meet You There Tab

			    I'll Meet You There - Simple Plan
-------------------------------------------------------------------------------
Album:No pads, no helmet,...just balls
By:Stiges
[ Tab from: http://www.guitartabs.cc/tabs/s/simple_plan/ill_meet_you_there_tab.html ]
Intro/ Verse
e|--------------------------------------------------------------------
B|--------------------------------------------------------------------
G|--------------------------------------------------------------------
D|-8-8-8-9-9-9-9-9-8-8-8-9-9-9-9-9------------------------------------
A|-9-9-9-9-9-9-9-9-9-9-9-9-9-9-9-9-6-6-6-7-7-7-7-7 6-6-6-7-7-7-7-7----
E|-7-7-7-7-7-7-7-7-7-7-7-7-7-7-7-7-0-0-0-0-0-0-0-0 0-0-0-0-0-0-0-0----
Pre-Chorus:"You're gone away, i've left a wall...."
e|------------------------------------------------------------------
B|--------------------------------------------------------------------
G|-----------------111111111111---------------------------------------
D|-6666666644444444222222222222---------------------------------------
A|-6666666644444444222222222222---------------------------------------
E|-4444444422222222000000000000---------------------------------------
Chorus: "I'll Meet you there...."
e|--------------------------------------------------------------------
B|--------------------------------------------------------------------
G|----------1--------------------------------------------------------
D|-9--------2--6-4----------------------------------------------------
A|-9-(12x)--2--6-4----------------------------------------------------
E|-7--------0--4-2----------------------------------------------------
Bridge                          "And where i go you'll be here...."
e|--------------------------------------------------------------------
B|--------------------------------------------9-----------------------
G|-11---------------------------6-------------9--9-7-----11-----------
D|-22-66-99-44-xxx--(repeat)----6--(Let ring)-9--9--9----22-66-99-44--
A|-22-66-99-44-xxx--------------4-------------7--7-------22-66-99-44--
E|-00-44-77-22-xxx---------------------------------------00-44-77-22--
Comments