Simple Plan - Id Do Anything Chords & Tabs

 

Id Do Anything Chords & Tabs

Simple Plan Chords & Tabs

Version: 9 Type: Tab 0 ratings
1 star 2 stars 3 stars 4 stars 5 stars
comments

Id Do Anything Tab

Simple Plan- I'd Do Anything
Tabber- Adam B
Tuning- Standard

Introduction
e---------------------------
b---------------------------
g---------0-3-1-------------	
d---3-6-1-------------------
a-4-------------------------
e---------------------------

Verse
e------------------------------------------
b------------------------------------------
g------------------------------------------
d-----6-5-6-----6-5-6--3--6-5-6------------
a------------------------------------------
e--4---------3-----------------------------
[ Tab from: http://www.guitartabs.cc/tabs/s/simple_plan/id_do_anything_tab_ver_9.html ]
e---------------------------
b---------------------------
g---------0-3-1-------------	Play This 4 Times
d---3-6-1-------------------
a-4-------------------------
e---------------------------

pre-chorus
e------------------------------------------
b------------------------------------------
g------------------------------------------
d---6-5-6-----6-5-6-----6-5-6------5-5-6-8-
a-----------3---------4----------6---------
e-3----------------------------------------

Chorus
e---------------------------------------
b---------------------------------------
g-6-6-------8-10-----------------------
d-6-6----6--8-10-----------------------
a-4-4----6--6--8------------------------
e--------4------------------------------
Comments