Simple Plan - Id Do Anything Chords & Tabs

 

Id Do Anything Chords & Tabs

Simple Plan Chords & Tabs

Version: 7 Type: Tab 0 ratings
1 star 2 stars 3 stars 4 stars 5 stars
comments

Id Do Anything Tab

----------------------------------------------------------------------
		     I'd Do Anything - Simple Plan
----------------------------------------------------------------------

By:ck_dubs
This is played in standard tuning
pm - Palm Mute
\  - Slide Down

Intro:                                                  
e|------------------------------------------------------
B|------------------------------------------------------
G|------------------------------------------------------
D|----5-6---6-8-666666----5-6---6-8-666666----5-6---6-8-
A|--4-----6-----666666--4-----6-----666666--4-----6-----
E|--------------444444--------------444444--------------
                 pm                  pm

Verse:
e|------------------------------------------
B|------------------------------------------
G|------------------------------------------
D|----6-5-6----6-5-6--3-6-5-6----5-6---6-8--
A|-----------------------------4-----6------
E|--4--------3------------------------------ X2

e|------------------------------------------
B|------------------------------------------
G|------------------------------------------
D|--6-6-5-6--5-6-5-6--3-6-5-6----5-6---6-8--
A|--6--------5-----------------4-----6------
E|--4--------3------------------------------ X2

Pre-Chorus:
e|--------------------------------
B|--------------------------------
G|--3--------5--------6--------8--
D|--3-6-5-6--5-6-5-6--6-6-5-6--8--
A|--1--------3--------4--------6--
E|--------------------------------
[ Tab from: http://www.guitartabs.cc/tabs/s/simple_plan/id_do_anything_tab_ver_7.html ]
Chorus:               End Chorus With:
e|---------------    ------------------
B|---------------    ------------------
G|--6------------    --6---------------
D|--6--6--8--10--    --6----5-6---6-8--
A|--4--6--6--08--    --4--4-----6------
E|-----4--6--08-- X4 ------------------

Verse:
e|------------------------------------------
B|------------------------------------------
G|------------------------------------------
D|----6-5-6----6-5-6--3-6-5-6----5-6---6-8--
A|-----------------------------4-----6------
E|--4--------3------------------------------ X2

e|------------------------------------------
B|------------------------------------------
G|------------------------------------------
D|--6-6-5-6--5-6-5-6--3-6-5-6----5-6---6-8--
A|--6--------5-----------------4-----6------
E|--4--------3------------------------------ X2

2nd Pre-Chorus:
e|---------------------------------------------------------
B|---------------------------------------------------------
G|--3--------5--------6--------8--6\5\3--------5--------8--
D|--3-6-5-6--5-6-5-6--6-6-5-6--8--6\5\3-6-5-6--5-6-5-6--8--
A|--1--------3--------4--------6--4\3\1--------3--------6--
E|---------------------------------------------------------

Chorus:
e|---------------
B|---------------
G|--6------------
D|--6--6--8--10--
A|--4--6--6--08--
E|-----4--6--08-- X4

Thereís a little interlude here that I donít know how to tab

Last Chorus:
e|---
B|---                                 Repeat X7
G|---                -6-6----------|-6-----------|
D|-8-                -6-6----8--10-|-6--6--8--10-|
A|-6-                -4-4----6--08-|-4--6--6--08-|
E|-6- Repeat ? times --------6--08-|----4--6--08-|

Outro:
e|---------------------
B|---------------------
G|--6------------------
D|--6----5-6---6-8--6--
A|--4--4-----6------6--
E|------------------4--
Comments