Simple Plan - Id Do Anything Chords & Tabs

 

Id Do Anything Chords & Tabs

Simple Plan Chords & Tabs

Version: 3 Type: Tab 1 rating
1 star 2 stars 3 stars 4 stars 5 stars
comments

Id Do Anything Tab

hey i was sitting at home and i was bored so i thought i wood tab this excellent song for other people to play, i guarantee it is 100% correct.

Artist - simple plan
Title - id do anything
Album - no pads no helmets just balls

Transcribed by brenton 
email ; nailz61@hotmail.com

 e---------------------------------
 B---------------------------------
 G---------------2-2-2-------------
 D-----4-7---6-9-2-2-2-------------
 A---5-----7-----0-0-0-------------
 E---------------------------------
thats the intro .... play that 3 times
[ Tab from: http://www.guitartabs.cc/tabs/s/simple_plan/id_do_anything_tab_ver_3.html ]
 e----------------------------------
 B----------------------------------
 G----------------------------------
 D------7-6-7---7-6-7---4-7---6-9---
 A--------------------5-----7-------
 E----5-------4---------------------
"Another day goin by thinkin about you all the time" play a few times

 e-----------------------------------
 B-----------------------------------
 G---------------------------2-2-2---
 D-----7-6-7---7-6-7---7-6-7-2-2-2---
 A---2-------4-------5-------0-0-0---
 E-----------------------------------
"this could be....."


 e--------------------------------------
 B--------------------------------------
 G----7-7-----------2-2-2-2--4-4-4-4----
 D----7-7--7-7-7-7--2-2-2-2--4-4-4-4----
 A----5-5--7-7-7-7--0-0-0-0--2-2-2-2----
 E---------5-5-5-5----------------------
thats the chorus

if u want the rest it is at a simple plan site i cant b bothered with the rest (but i have changed it a bit) 
happy playing and SIMPLE PLAN RULE!!!! punk rocks













    
Comments