Simple Plan - Id Do Anything Chords & Tabs

 

Id Do Anything Chords & Tabs

Simple Plan Chords & Tabs

Version: 10 Type: Tab 0 ratings
1 star 2 stars 3 stars 4 stars 5 stars
comments

Id Do Anything Tab

hey. this is a pretty cool band/song.

Intro

Guitar 1

E|-----------------------------------------------------------------
B|-----------------------------------------------------------------
G|-----------------------------------------------------------------
D|----3-6----5-8------6-6-6-6-6-6----------------------------------X2
A|-4------6-----------6-6-6-6-6-6----------------------------------
D|---------------6----6-6-6-6-6-6----------------------------------
PM                    . . . . . .

Guitar 1

E|-------------------------------------------------------------------
B|-------------------------------------------------------------------
G|-------------------------------------------------------------------
D|----3-6----5-8----------------------------------------------------- x1
A|-4------6----------------------------------------------------------
D|---------------6---------------------------------------------------

Verse

Guitar 1

E|-------------------------------------------------------------------
B|-------------------------------------------------------------------
G|-------------------------------------------------------------------
D|---6--5-6----6--5-6--3--6-5-6------3-5-----5-8---------------------x2
A|--------------------------------4-------6--------------------------
D|-6---------5-------------------------------------------------------

Guitar 2
At intervals it does this while guitar 1 plays verse (listen to song, 
for spots and timing) PLAYS WITH 2 VERSES

E|--4---4-4----------------------------------------------------------
B|-------------------------------------------------------------------
G|-------------------------------------------------------------------
D|-------------------------------------------------------------------
A|-------------------------------------------------------------------
D|-------------------------------------------------------------------

After playin the above continue with

E|-------------------------------------------------------------------
B|-------------------------------------------------------------------
G|-------------------------------------------------------------------
D|---6--5-6----6--5-6--3--6-5-6------3-5-----5-8---------------------x2
A|--------------------------------4-------6--------------------------
D|-6---------5-------------------------------------------------------

Pre Chorus

Guitar 1

E|-------------------------------------------------------------------
B|-------------------------------------------------------------------
G|-------------------------------------------------------------------
D|----6--5-6----------6--5-6----------6--5-6----------5--6-5---------
A|-----------------3---------------4---------------6-----------------
D|-8-----------------------------------------------------------------

Guitar 2

E|-------------------------------------------------------------------
B|-------------------------------------------------------------------
G|-----------------5--5-5-5-5-5-5--6--6-6-6-6-6-6--8--8-8-8-8-8-8----
D|-8--8-8-8-8-8-8--5--5-5-5-5-5-5--6--6-6-6-6-6-6--8--8-8-8-8-8-8----
A|-8--8-8-8-8-8-8--3--3-3-3-3-3-3--4--4-4-4-4-4-4--6--6-6-6-6-6-6----
D|-8--8-8-8-8-8-8----------------------------------------------------
PM    . . . . . .     . . . . . .     . . . . . .     . . . . . . 

Chorus

Both guitars

E|-----|-------------------------------------------------
B|-----|-------------------------------------------------
G|6--6-|-------------------------------------------------
D|6--6-|6-6-6-6-6-6-6-6-1-1-1-1-1-1-1-1-1-3-3-3-3-3-3-3-3
A|4--4-|6-6-6-6-6-6-6-6-1-1-1-1-1-1-1-1-1-3-3-3-3-3-3-3-3
D|-----|6-6-6-6-6-6-6-6-1-1-1-1-1-1-1-1-1-3-3-3-3-3-3-3-3
(continued below)

E|-------------------------------------------------------
B|-------------------------------------------------------
G|-6--6--6-6-6-6-----------------------------------------
D|-6--6--6-6-6-6-----------------------------------------
A|-4--4--4-4-4-4-----------------------------------------
D|-------------------------------------------------------

E|-----|-------------------------------------------------
B|-----|-------------------------------------------------
G|6--6-|-------------------------------------------------
D|6--6-|6-6-6-6-6-6-6-6-1-1-1-1-1-1-1-1-1-3-3-3-3-3-3-3-3
A|4--4-|6-6-6-6-6-6-6-6-1-1-1-1-1-1-1-1-1-3-3-3-3-3-3-3-3
D|-----|6-6-6-6-6-6-6-6-1-1-1-1-1-1-1-1-1-3-3-3-3-3-3-3-3

E|----------------------------------------------
B|----------------------------------------------
G|-6--6--6-6-6-6--------------------------------
D|-6--6--6-6-6-6--------------------------------
A|-4--4--4-4-4-4-6-6-6-6-6-6-6-6-1-1-1-1-1-1-1-1
D|---------------6-6-6-6-6-6-6-6-1-1-1-1-1-1-1-1
Continued below

E|-------------------------------------------------------------------
B|-------------------------------------------------------------------
G|-------------------------------------------------------------------
D|-3-3-3-3-3-3-3-3---------------------------------------------------
A|-3-3-3-3-3-3-3-3---------------------------------------------------
D|-3-3-3-3-3-3-3-3---------------------------------------------------

End it

Guitar 1
[ Tab from: http://www.guitartabs.cc/tabs/s/simple_plan/id_do_anything_tab_ver_10.html ]
on the second chorus just end on the first 5th
E|-----|-------------------------------------------------------------
B|-----|-------------------------------------------------------------
G|-6---|-------------------------------------------------------------
D|-6---|----3-5-----5-8----------------------------------------------
A|-4---|-4-------6---------------------------------------------------
D|-----|-------------------------------------------------------------

Verse

this one is different, guitar 1 plays the same, guitar 2 is different

Guitar 2

PLAYS WITH 2 VERSES

E|--4---4-4----------------------------------------------------------
B|-------------------------------------------------------------------
G|-------------------------------------------------------------------
D|-------------------------------------------------------------------
A|-------------------------------------------------------------------
D|-------------------------------------------------------------------

Guitar 2

listen to song, its there...
PLAYS WITH THE 2 REMAINING VERSES

E|-------------------------------------------------------------------
B|-------------------------------------------------------------------
G|----5--3-5---------------------------------------------------------
D|-------------------------------------------------------------------
A|-------------------------------------------------------------------
D|-------------------------------------------------------------------

Pre Chorus 

Both Guitars

There is an extention  "And I just can let you leave me once again"

E|-------------------------------------------------------------------
B|-------------------------------------------------------------------
G|--5-5-5-5-5-5-5-5-6-6-6-6-6-6-6-6-8-8-8-8-8-8-8-8------------------
D|--5-5-5-5-5-5-5-5-6-6-6-6-6-6-6-6-8-8-8-8-8-8-8-8------------------
A|--3-3-3-3-3-3-3-3-4-4-4-4-4-4-4-4-6-6-6-6-6-6-6-6------------------
D|-------------------------------------------------------------------
PM  . . . . . . . . . . . . . . . . . . . . . . . .

Chorus

Interlude

on the mp3 this is not there, but when they play live guitar 1 plays this
(listen to the song for timing)
Guitar 1

E|-------------------------------------------------------------------
B|---4---------------6-----------------------------------------------
G|-3-----0---------3-----3-------------------------------------------
D|-------------------------------------------------------------------
A|-------------------------------------------------------------------
D|-------------------------------------------------------------------

Interlude end

Both Guitars

E|-------------------------------------------------------------------
B|-------------------------------------------------------------------
G|-------------------------------------------------------------------
D|--1------1------1---1---1------------------------------------------
A|--1------1------1---1---1------------------------------------------
D|--1------1------1---1---1------------------------------------------

Ending Chorus

Both Guitars

E|-------------------------------------------------------------------
B|-------------------------------------------------------------------
G|--6---6------------------------------------------------------------
D|--6---6------------------------------------------------------------
A|--4---4------------------------------------------------------------
D|-------------------------------------------------------------------

Guitar 1
The timing to the solo is difficult, you should listen to the song...

E|--11---11-11-11-11-------------------------------------------------
B|--------------------9/11-11-11/13--9---9-9-9-9-8-9-8\6-8-----------
G|-------------------------------------------------------------------
D|-------------------------------------------------------------------x2
A|-------------------------------------------------------------------
D|-------------------------------------------------------------------

E|--11-11-11-11------------------------------------------------------
B|-----------------9-9-9--11-11-11-----------------------------------
G|-------------------------------------------------------------------
D|-------------------------------------------------------------------x4
A|-------------------------------------------------------------------

Guitar 2

E|-------------------------------------------------------------------
B|-------------------------------------------------------------------
G|-------------------------------------------------6--6--6-6-6-6-----
D|-6-6-6-6-6-6-6-6-1-1-1-1-1-1-1-1-3-3-3-3-3-3-3-3-6--6--6-6-6-6-----x8
A|-6-6-6-6-6-6-6-6-1-1-1-1-1-1-1-1-3-3-3-3-3-3-3-3-4--4--4-4-4-4-----
D|-6-6-6-6-6-6-6-6-1-1-1-1-1-1-1-1-3-3-3-3-3-3-3-3-------------------

Guitar 1

Outro

E|-------------------------------------------------------------------
B|-------------------------------------------------------------------
G|-6-----------------------------------------------------------------
D|-6-------3-5-----5-8--6--------------------------------------------
A|-4----4-------6-------6--------------------------------------------
D|----------------------6--------------------------------------------

thanks for reading this. e-mail me at Because419@aol.com to tell me how good or bad it was
Comments