Simple Plan - Id Do Anything Chords & Tabs

 

Id Do Anything Chords & Tabs

Simple Plan Chords & Tabs

Version: 1 Type: Tab 1 rating
1 star 2 stars 3 stars 4 stars 5 stars
comments

Id Do Anything Tab

By: Mark Strong
I looked on the site to find the song and when i went to played it, it sounded odd and i found the mistakes, or at least what i herd on the track. Drop D Tuning. Hope it helps you. 
Q's/Comments to mhstrong@hotmail.com

Intro:                   Ending 1    Ending 2    Ending 3
e|----------------------|-----------|-----------|----------|   
B|----------------------|-----------|-----------|----------|
G|----------------------|-----------|-----------|----------|
D|-----3h6------5h8-----|--6-6-6-6--|--6-6-6-6--|---6------|
A|--4--------6----------|--6-6-6-6--|--6-6-6-6--|---6------|
D|----------------------|--6-6-6-6--|--6-6-6-6--|---6------|
                             x x x       x x x 
Verse:                                                               E|---------------------------------------------------------|
B|---------------------------------------------------------|
G|---------------------------------------------------------|
D|-----6-5h6-------6-5h6----3--6-5h6------3h6-------5h8----|x 4
A|-------------------------------------4---------6---------|
D|--6-----------5------------------------------------------|

Note In Verse: On Second/Third Repeat of above Guitar 2 Plays:
e|---------------------------------------------------------|
B|---------------------------------------------------------|
G|--13--13--13--13--13--13--13--13--13---------------------|
D|---------------------------------------------------------|
A|--11--11--11--11--11--11--11--11--11---------------------|
D|---------------------------------------------------------|

Pre-Chorus:
e|---------------------------------------------------------|
B|---------------------------------------------------------|
G|---------------------------------------------------------|
D|----6-5h6------6-5h6------6-5h6----5-5-5--6-6-6--7-------|x1
A|------------3----------4---------------------------------|
D|--8------------------------------------------------------|

Chorus:
e|---------------------------------------------------------|
B|---------------------------------------------------------|
G|--6--6---------------------------------------------------|
D|--6--6----6--6----1--1-----3--3--------------------------| x4
A|--4--4----6--6----1--1-----3--3--------------------------|
D|----------6--6----1--1-----3--3--------------------------|
Note: Same cords used in Chorus but on first and third time Jeff pauses. Listen to know where.

Note: At end of Chorus play the Intro with only Ending 3.  
[ Tab from: http://www.guitartabs.cc/tabs/s/simple_plan/id_do_anything_tab.html ]
Bridge:(clean do i hear flanger? w/ drum roll)
e|---------------------------------------------------------|
B|---------------------------------------------------------|
G|--6--5--6------------------------------------------------|
D|--6--6--6----6----1-----3---------------------3----------| x4
A|--4--4--4----6----1-----3---------------------3----------|
D|-------------6----1-----3---------------------3----------|
                                End Bridge on a ^
Solo Part at End:
e|---------------------------------------------------------|
B|--14b16--14b16--9b11--11b13------------------------------|
G|-----------------------------11b13-----------------------|
D|---------------------------------------------------------| 
A|---------------------------------------------------------|
D|---------------------------------------------------------|

e|---------------------------------------------------------|
B|---------16---------16---------16------------------14----|
G|--12-13------12-13------12-13----------------------------|
D|---------------------------------------------------------| 
A|---------------------------------------------------------|
D|---------------------------------------------------------|   
Play x 4 with minor changes.                   End on ^

End
e|---------------------------------|
B|---------------------------------|
G|---------------------------------|
D|-----3h6------5h8-------6--\-----|
A|--4--------6------------6--\-----|
D|------------------------6--\-----|

Lyrics:
Another day is going by
I'm thinking about you all the time
But you're out there
And I'm here waiting

And I wrote this letter in my head
'Cuz so many thing were left unsaid
But now you're gone
And I can't think straight

This could be the one last chance
To make you understand

I'd do anything
Just to hold you in my arms
To try to make you laugh
Somehow I can't put you in the past
I'd do anything
Just to fall asleep with you
Will you remember me?
'Cuz I know
I won't forget you

Together we broke all the rules
Dreaming of dropping out of school
And leave this place
To never come back

So now maybe after all these years
If you miss me have no fear
I'll be here
I'll be waiting

This could be the one last chance to make you understand
And I just can't let you leave me once again

I close my eyes
And all I see is you
I close my eyes
I try to sleep
I can't forget you
Nanana (....)
And I'd do anything for you

I'd do anything
To fall asleep with you
I'd do anything
There's nothing I won't do
I'd do anything
To fall asleep with you
I'd do anything
'Cuz I know
I won't forget you
(lyrics from http://www.absolutelyric.com)

Symbols:
      h - hammer on 
      p - pull off 
      b - bend string up
      r - release bend
      / - slide up
      \ - slide down
      v - vibrato (sometimes written as ~)
      t - tap (with strumming hand)
      x - muted, struck string
Comments