Simple Plan - Id Do Anything Chords & Tabs

 

Id Do Anything Chords & Tabs

Simple Plan Chords & Tabs

Version: 2 Type: Bass Tab 1 rating
1 star 2 stars 3 stars 4 stars 5 stars
comments

Id Do Anything Bass Tab

I'm tabbing this out on my 5-string so i apologize for any inconvenience it
may cause some people.

INTRO

G---------------------------------------------------------------
D----3h6----5h8-66666666---3h6----5h8-666664----3h6----5h8--6\0-
A--4------6--------------4------6-----------65-4-----6----------
E---------------------------------------------------------------
B---------------------------------------------------------------

Bass comes back in after first verse

G-----------------------------------------------------------------------------------------
D----3h6----5h8---------------------------------------------------------------------------
A--4------6---------------------------------------------------------------------4444-6666-
E---------------44444444-33333333-11111111-----------44444444-33333333-11111111-----------
B------------------------------------------2222-4444--------------------------------------

PRECHORUS

G-------------------------------------
D-------------------------------------
A-------------------44444444-66666666- i'm not too sure bout this, email me if i'm wrong
E-88888888-66666666-------------------
B-------------------------------------

CHORUS

G--------------------------------------------------------------------------------
D--------------------------------------------------------------------------------
A-4-4----------------------------44444444------------------------64--------------  2X
E-----44444444----------------------------44444444------------------64(let ring)-
B--------------44444444-66666666-------------------44444444-6666-----------------

VERSE

G---------------------------------------------------------------------------
D---------------------------------------------------------------------------
A-----------------------------------------------------------------4444-6666-  2X
E-44444444-33333333-11111111-----------44444444-33333333-11111111-----------
B----------------------------2222-4444--------------------------------------

PRECHORUS
[ Tab from: http://www.guitartabs.cc/tabs/s/simple_plan/id_do_anything_btab_ver_2.html ]
G-------------------------------------------------------------------------
D-------------------------------------------------------------------------
A-------------------44444444-66666666-------------------66666666666666666- ??not too sure
E-88888888-66666666-------------------88888888-66666666-------------------
B-------------------------------------------------------------------------

PLAY CHORUS ONCE

PRELUDE
G------------------------------------------
D------------------------------------------
A-4~~~------6~~~-8~-10-11\4~~~------6~~~~~-
E------4~~~--------------------4~~~--------
B------------------------------------------

GO THROUGH CHORUS ONCE THEN COME IN WITH (this is the tricky part=)):

G----------66------------------------88-1010-88-----------
D-------66-------------66---------88------------11-11-88--
A-44-88-------------66----66-1010-------------------------
E-------------44-88---------------------------------------
B---------------------------------------------------------

G----------66------------------------88-10-8------8-6-----
D-------66-------------66---------88---------11-8-----8-6-
A-44-88-------------66----66-1010-------------------------
E-------------44-88---------------------------------------
B---------------------------------------------------------

G----------66------------------------88-10-8------8-6-----
D-------66-------------66---------88---------11-8-----8-6-
A-44-88-------------66----66-1010-------------------------
E-------------44-88---------------------------------------
B---------------------------------------------------------

G----------66------------------------88------------------
D-------66-------------66---------88---------------------
A-44-88-------------66----66-1010-------88-66-44---------
E-------------44-88------------------------------66-44~~-
B--------------------------------------------------------

G------------------
D---3h6---5h8-6~~~-
A-4-----6----------
E------------------
B------------------

And thats it.  Theres alot of little fills and stuff so don't be afraid to
mess around.  I think the prechorus is wrong but my amp is being fixed at the
moment so i can't figure it out just now, but ur all smart people right?
If have any questions or comments, please email me at suzy_babe_89@hotmail.com
Suzy=)
Comments