Simple Plan - I Wont Be There Chords & Tabs

 

I Wont Be There Chords & Tabs

Simple Plan Chords & Tabs

Version: 1 Type: Tab 0 ratings
1 star 2 stars 3 stars 4 stars 5 stars
comments

I Wont Be There Tab

this is an awesome song but no one tabbed it so i decided to. The only thing
i dont know is the guitar 2 with all the weird effects. Other than that i think
this is close to perfect

tune down 1/2 step
x=mute w/fretting hand

intro:
eb-----------------------------------------------------------------------------
Bb-----------------------------------------------------------------------------
Gb----2-2-2-6-4---4-2-4---4-2-4-6-4-2-4-6---------6-4--------------------------
Db-2--2-2-2-6-4-2-4-2-4-2-4-2-4-6-4-2-4-6-6-7-7-7-6-4-2------------------------
Ab-2--0-0-0-4-2-2-2-0-2-2-2-0-2-4-2-0-2-4-6-7-7-7-4-2-2------------------------
Eb-0------------0-------0-----------------4-5-5-5-----0------------------------

pre-chorus:
eb-----------------------------------------------------------------------------
Bb-----------------------------------------------------------------------------
Gb-xxxxxx-------4-22222-4-------4-22222-4--------------------2222222222222222--
Db-xxxxxx-22222-4-22222-4-22222-4-22222-4--22222222-44444444-2222222222222222--
Ab-xxxxxx-22222-2-00000-2-22222-2-00000-2--22222222-44444444-0000000000000000--
Eb--------00000-----------00000------------00000000-22222222-------------------

chorus:
eb-----------------------------------------------------------------------------
Bb-----------------------------------------------------------------------------
Gb----44-----------------4444----------22222222-44444444-----------------------
Db-22-44-77-7676----2222-4444-44444444-22222222-44444444-----------------------
Ab-22-22-77-7676-x2-2222-2222-44444444-00000000-22222222-----------------------
Eb-00----55-5454----0000------22222222-----------------------------------------
[ Tab from: http://www.guitartabs.cc/tabs/s/simple_plan/i_wont_be_there_tab.html ]
pre-verse:
eb-----------------------------------------------------------------------------
Bb-----------------------------------------------------------------------------
Gb---4-2-4---4-2-4-------------------------------------------------------------
Db-2-4-2-4-2-4-2-4-2-----------------------------------------------------------
Ab-2-2-0-2-2-2-0-2-2-----------------------------------------------------------
Eb-0-------0-------0-----------------------------------------------------------

pre-chorus

chorus

bridge:
eb-----------------------------------------------------------------------------
Bb-----------------------------------------------------------------------------
Gb----44-66--------------------------------------------------------------------
Db-22-44-66-77-9---------------------------------------------------------------
Ab-22-22-44-77-9---------------------------------------------------------------
Eb-00-------55-7---------------------------------------------------------------

chorus:
eb-----------------------------------------------------------------------------
Bb-----------------------------------------------------------------------------
Gb----44-----------------4444----------22222222-44444444-----------------------
Db-22-44-77-7676----2222-4444-44444444-22222222-44444444-----------------------
Ab-22-22-77-7676-x2-2222-2222-44444444-00000000-22222222-----------------------
Eb-00----55-5454----0000------22222222-----------------------------------------

eb-----------------------------------------------------------------------------
Bb-----------------------------------------------------------------------------
Gb----44-----------------4444----------2--2-4444444444444444-------------------
Db-22-44-77-7676----2222-4444-44444444-2--2-4444444444444444-------------------
Ab-22-22-77-7676-x2-2222-2222-44444444-0--0-2222222222222222-------------------
Eb-00----55-5454----0000------22222222-----------------------------------------

outro:
eb-----------------------------------------------------------------------------
Bb-----------------------------------------------------------------------------
Gb---4-2-4---4-2-4---4-2-4---4-2-----------------------------------------------
Db-2-4-2-4-2-4-2-4-2-4-2-4-2-4-2-----------------------------------------------
Ab-2-2-0-2-2-2-0-2-2-2-0-2-2-2-0-----------------------------------------------
Eb-0-------0-------0-------0---------------------------------------------------

thats it. Pretty simple but a really cool song e-mail me if you have any corrections. Later
Comments