Simple Plan - I D Do Anything Chords & Tabs

 

I D Do Anything Chords & Tabs

Simple Plan Chords & Tabs

Version: 1 Type: Tab 4 ratings
1 star 2 stars 3 stars 4 stars 5 stars
comments

I D Do Anything Tab

intro
e---------------------------
b---------------------------
g---------0-3-1-------------	3x
d---3-6-1-------------------
a-4-------------------------
e---------------------------

verse
e------------------------------------------c
b------------------------------------------
g------------------------------------------
d-----6-5-6-----6-5-6--3--6-5-6------------
a------------------------------------------
e--4---------3-----------------------------

e---------------------------
b---------------------------
g---------0-3-1-------------	4x
d---3-6-1-------------------
a-4-------------------------
e---------------------------
[ Tab from: http://www.guitartabs.cc/tabs/s/simple_plan/i_d_do_anything_tab.html ]
pre-chorus
e------------------------------------------
b------------------------------------------
g------------------------------------------
d---6-5-6-----6-5-6-----6-5-6-----6-5-6----
a-----------3---------4---------6----------
e-6----------------------------------------

chorus
e--------------------------------------------------
b--------------------------------------------------
g-6-6--------------88888888—10-10-10-10-10-10-10-10
d-6-6----66666666--88888888—10-10-10-10-10-10-10-10
a-4-4----66666666--66666666--8--8--8--8--8--8--8--8
e--------46666666----------------------------------

e------------------
b------------------
g-66666666---------	
d-66666666---------
a-44444444---------
e------------------

intro 1x
verse 5x
pre-chorus 2x
chorus

interlude (too hard to figure out! This is only my first tab!)

play chorus until end. end with intro once.
Comments