Simple Plan - Grow Up Chords & Tabs

 

Grow Up Chords & Tabs

Simple Plan Chords & Tabs

Version: 1 Type: Tab 0 ratings
1 star 2 stars 3 stars 4 stars 5 stars
comments

Grow Up Tab

Song : Grow Up
Band : Simple Plan
Tabbed By : Diamond Jerry (Raptureboy182@yahoo.com)

Tuning : Down 1/2 step (D#-G#-C#-F#-A#-D#)

Not so accurate....but i think it's better than the other tabbers....sigh!!


[Verse]

 (guitar1) palm mute...
d#|-----------------------------------|-----------------------------------------|
A#|-----------------------------------|-----------------------------------------|
F#|-----------------------------------|------------------------------------(2x)-| 
C#|----2h3-2-----------2h3-2------5~--|----2h-3-----------2h3-2-----------------|
G#|-33--------------------------------|-33----------------------------5~--------|
D#|-----------33-3---11--------33-----|----------33-3---11-------33-------------|

 (guitar2) palm mute...
d#|-----------------------------------------------------------------------------|
A#|-----------------------------------------------------------------------------|
F#|-----------------------------------------------------------------------------|
C#|---55-5-----------------------------(4x)-------------------------------------|
G#|---33-3----55-5----33-3----55-5----------------------------------------------|
D#|-----------33-3----11-1----33-3----------------------------------------------|


[Pre-Chorus]

 (guitar1) 
d#|-----------------------|-----------------------------------------------------|
A#|-----------------------|-------------------^^^^^^----------------------------|
F#|-----------------------|-----0---------4--/555555---7~-----------------------|
C#|----2h3-2------5~------|-----5--5--2---2--/333333---5~-----------------------|
G#|-----------------------|-----3--2--0-----------------------------------------|
D#|-11---------33---------|-----------------------------------------------------|

 (guitar2)
d#|-----------------------|-----------------------------------------------------|
A#|-----------------------|-----------------------------------------------------|
F#|-----------------------|----5--5--2-------^^^^^^-----------------------------|
C#|-----------------------|----5--5--2---2---333333---5~------------------------|
G#|--33-3----55-5---------|----3--2--0---2---333333---5~------------------------|
D#|--11-1----33-3---------|--------------0---111111---3~------------------------|


[Chorus]
[ Tab from: http://www.guitartabs.cc/tabs/s/simple_plan/grow_up_tab.html ]
 (guitar1) listen carefully for the timing....
d#|-----------------------------------------------------------------------------|
A#|-----------------------------------------------------------------------------|
F#|---5-55555---/7777---12-\10-\-9-/101010101010-/-121212----7/9\7--------------|
C#|---x-xxxxx---/xxxx----x-\-x-\-x-/-x-x-x-x-x-x-/--x-x-x----x/x\x----(2x)------|
G#|---3-33333---/5555---10-\-8-\-7-/-8-8-8-8-8-8-/-101010----5/7\5--------------|
D#|-----------------------------------------------------------------------------|

d#|-----------------------------------------------|
A#|-----------------------------------------------|
F#|--10101010101010---/-1212121212----7/9\7/9-----|
C#|---x-x-x-x-x-x-x---/--x-x-x-x-x----x/x\x/x-----|
G#|---8-8-8-8-8-8-8---/-1010101010----5/7\5/7-----|
D#|-----------------------------------------------|


 (guitar2)
d#|-----------------------------------------------------------------------------|
A#|-----------------------------------------------------------------------------|
F#|---5-555555----7-777777------------------------------------------------------|
C#|---5-555555----7-777777----3-555555----5-555555--(2x)--333333---555555-------|
G#|---3-333333----5-577777----3-555555----5-555555--------333333---555555-------|
D#|---------------------------1-111111----3-333333--------111111---333333-------|


(repeat verse)
(repeat Pre-chorus) 
(repeat Chorus)

[Bridge1]

 Not sure 'bout "guitar1"...u just figure it out....
 
 (guitar2)
d#|----------------------------------------------------------------------------|
A#|----------------------------------------------------------------------------|
F#|----------------555-555-----------------------------------------------------|
C#|---7~--5~--3~---555-555---(2x)----77--55--3~--------------------------------|
G#|---7~--5~--3~---333-222-----------77--55--3~--------------------------------|
D#|---5~--3~--1~---------------------55--33--1~--------------------------------|

[Bridge2]

   using wah-wah pedal.....
d#|-----------------------|----------------------------------------------------|
A#|-----------------------|----------------------------------------------------|
F#|----5-----7------------|----5----7------------------------------------------|
C#|---5-----7-----3----5--|---5----7------3---5~-----(12121212)----------------|
G#|--3-----5-----3----5---|--3----5------3----5~-----(10101010)----------------|
D#|-------------1----3----|-------------1-----3~-------------------------------|

(repeat Chorus 2x) along the chorus,got guitar solo..u just simply figure it out..

[Outro]
     
    (guitar2)       (guitar1)
d#|-------------|---------------|
A#|-------------|---------------|
F#|---55-55-----|---55-55-------|
C#|---55-55-----|---xx-xx-------|
G#|---33-33-----|---33-33-------|
D#|-------------|---------------|
Comments