Simple Plan - God Must Hate Me Chords & Tabs

 

God Must Hate Me Chords & Tabs

Simple Plan Chords & Tabs

Version: 5 Type: Tab 0 ratings
1 star 2 stars 3 stars 4 stars 5 stars
comments

God Must Hate Me Tab

   
This is actually only the chorus and the intro so here. This was based on listening to
Simple Plan's cd.

Tuning: eb Bb Gb Db Ab eb

Intro:
[ Tab from: http://www.guitartabs.cc/tabs/s/simple_plan/god_must_hate_me_tab_ver_5.html ]
e|---------------13-13-13-15-13-12-10------|
B|----13---15------------------------------|
G|------12---12----------------------------|
D|-----------------------------------------|
A|-----------------------------------------|
E|-----------------------------------------|
                                                 2X
e|-----------------------------------------|
B|----13---15----15-16-16-16---------------|
G|------12---12----------------------------|
D|-----------------------------------------|
A|-----------------------------------------|
E|-----------------------------------------|

Verse: There is really only just the bass guitar so I skiped the verse.

Chorus:

e|--xx-xx-xx-xx----------------------------|
B|--xx-xx-xx-xx----------------------------|
G|--55-xx-xx-xx----------------------------|
D|--55-55-33-55----------------------------|
A|--33-55-33-55----------------------------|
E|-----33-11-33----------------------------| 

Then that's all folks...but when it gets to the chorus after the brigde  you just have
to move it up one fret. To figure out the other parts od the song, I am pretty sure that
you just have to mix up the chords in the song..

If you have any comments or suggestions please email me at fenderlover19@yahoo.com...THANKS
Comments