Simple Plan - God Must Hate Me Chords & Tabs

 

God Must Hate Me Chords & Tabs

Simple Plan Chords & Tabs

Version: 4 Type: Tab 0 ratings
1 star 2 stars 3 stars 4 stars 5 stars
comments

God Must Hate Me Tab

   
Artist:Simple Plan
Song: God must hate me
Album: No pads no helmets just balls
Tabbed by: Franco Saavedra (cordoba, Argentina)
           fns_franco@hotmail.com

-----------------------------------------------------------------------
GOD MUST HATE ME - Simple plan
-----------------------------------------------------------------------
(Intro):

e|------------------------------------------------------
B|--4------------4--------------------------------------
G|--4--4---------4--4-----------------------------------
D|--2--4--2-6-6--2--4--2--5x-5x-5x----------------------
A|-----2--2-6-6-----2--2--5x-5x-5x----------------------
E|--------0-4-4--------0--3x-3x-3x----------------------

(continued)
e|------------------------------------------------------
B|--4------------4--------------------------------------
G|--4--4---------4--4-----------------------------------
D|--2--4--2-6-6--2--4--2--5x-5x-5x-2--------------------
A|-----2--2-6-6-----2--2--5x-5x-5x-2--------------------
E|--------0-4-4--------0--3x-3x-3x-0--------------------


"Last nigth"...(BASS PART)

G|----------------------------------------------------------
D|--------4---------------4---------------4---------------4-
A|----------------2-------------------------------2---------  x2
E|2-------------------------------2-------------------------

"Man Im death"...
e|--------------------------------------------------------------
B|----------------------4-4------------------------------1------
G|----------------------4-4--------------------------------0----
D|--2-2-2-2-2-4-4-4-4-4-2-2-6-6-4-4-2-2-2--2~-2~-2~--2-2--------
A|--2-2-2-2-2-4-4-4-4-4-----6-6-4-4-2-2-2--2~-2~-2~--2----------
E|--0-0-0-0-0-2-2-2-2-2-----4-4-2-2-0-0-0--0~-0~-0~-------------

"God must hate me"...       | "God must hate me"...
e|--------------------------|----------------------------
B|--4-4---------------------|-4-4------------------------
G|--4-4-4-4-----------------|-4-4-4-4--------------------
D|--2-2-4-4--6-6-6--2-2-2-2-|-2-2-4-4--6-6-6--2-2-2-2----
A|------2-2--6-6-6--2-2-2-2-|-----2-2--6-6-6--2-2-2-2----
E|-----------4-4-4--0-0-0-0-|----------4-4-4--0-0-0-0----

(Continued)
GUIRAR A
e|------------------------------------------------------
B|------------------------------------------------------
G|------------------------------------------------------
D|--6-6-6-6-4-4-4-4-2-2-2-2-4~--------------------------
A|--6-6-6-6-4-4-4-4-2-2-2-2-4~--------------------------
E|--4-4-4-4-2-2-2-2-0-0-0-0-2~--------------------------

GUITAR B

e|------------------------------------------------------
B|--------1-------1-------------------------------------
G|----------0-------0-----------------------------------
D|------2-------2---------------------------------------
A|-----2-------2----------------------------------------
E|------------------------------------------------------


"I wanna go high"...
e|------------------------------------------------------
B|--4------------4--------------------------------------
G|--4--4---------4--4-----------------------------------
D|--2--4--2-6-6--2--4--2--5x-5x-5x----------------------
A|-----2--2-6-6-----2--2--5x-5x-5x----------------------
E|--------0-4-4--------0--3x-3x-3x----------------------


"Last night I have to"...(bass part)

G|----------------------------------------------------------
D|--------4---------------4---------------4---------------4-
A|----------------2-------------------------------2---------  x2
E|2-------------------------------2-------------------------


e|--------------------------------------------------------------
B|----------------------4-4------------------------------1------
G|----------------------4-4--------------------------------0----
D|--2-2-2-2-2-4-4-4-4-4-2-2-6-6-4-4-2-2-2--2~-2~-2~--2-2--------
A|--2-2-2-2-2-4-4-4-4-4-----6-6-4-4-2-2-2--2~-2~-2~--2----------
E|--0-0-0-0-0-2-2-2-2-2-----4-4-2-2-0-0-0--0~-0~-0~-------------

"God must hate me"...       |"God must hate me"...  
e|--------------------------|----------------------------
B|--4-4---------------------|-4-4------------------------
G|--4-4-4-4-----------------|-4-4-4-4--------------------
D|--2-2-4-4--6-6-6--2-2-2-2-|-2-2-4-4--6-6-6--2-2-2-2----
A|------2-2--6-6-6--2-2-2-2-|-----2-2--6-6-6--2-2-2-2----
E|-----------4-4-4--0-0-0-0-|----------4-4-4--0-0-0-0----
[ Tab from: http://www.guitartabs.cc/tabs/s/simple_plan/god_must_hate_me_tab_ver_4.html ]
(Continued)
GUIRAR A
e|------------------------------------------------------
B|------------------------------------------------------
G|------------------------------------------------------
D|--6-6-6-6-4-4-4-4-2-2-2-2-4-4-4-4---------------------
A|--6-6-6-6-4-4-4-4-2-2-2-2-4-4-4-4---------------------
E|--4-4-4-4-2-2-2-2-0-0-0-0-2-2-2-2---------------------

GUITAR B

e|------------------------------------------------------
B|--------1-------1---------1---------------------------
G|----------0-------0---------0-------------------------
D|------2-------2---------2-----------------------------
A|-----2-------2--------2-------------------------------
E|------------------------------------------------------

1:50 "I wanna go high"...
e|------------------------------------------------------
B|------------------------------------------------------
G|------------------------------------------------------
D|---2x-2x-2x-2x-2x-2x-4x-4x-4x-4x-4x--2x-2x-2x-2x------
A|---2x-2x-2x-2x-2x-2x-4x-4x-4x-4x-4x--2x-2x-2x-2x------
E|---0x-0x-0x-0x-0x-0x-2x-2x-2x-2x-2x--0x-0x-0x-0x------

(Continued)
e|------------------------------------------------------
B|------------------------------------------------------
G|---4-4------------------------------------------------
D|---4-4-4-4--2--2x-2x-2x-2x-2x-2x-4x-4x-4x-4x-4x-------
A|---2-2-4-4--2--2x-2x-2x-2x-2x-2x-4x-4x-4x-4x-4x-------
E|-------2-2--0--0x-0x-0x-0x-0x-0x-2x-2x-2x-2x-2x-------

  2:02
e|------------------------------------------------------
B|------------------------------------------------------
G|------------------------------------------------------
D|-------------------------------------------------^----
A|--2/5-5--5/7-7/9-9-9/11-11-11-11/13-13-13-13-13/15----
E|------------------------------------------------------





"God must hate me"...       |"God must hate me"...  
e|--------------------------|----------------------------
B|--4-4---------------------|-4-4------------------------
G|--4-4-4-4-----------------|-4-4-4-4--------------------
D|--2-2-4-4--6-6-6--2-2-2-2-|-2-2-4-4--6-6-6--2-2-2-2----
A|------2-2--6-6-6--2-2-2-2-|-----2-2--6-6-6--2-2-2-2----
E|-----------4-4-4--0-0-0-0-|----------4-4-4--0-0-0-0----

(Continued)
GUIRAR A
e|------------------------------------------------------
B|------------------------------------------------------
G|------------------------------------------------------
D|--6-6-6-6-4-4-4-4-2-2-2-2-4-4-4-4---------------------
A|--6-6-6-6-4-4-4-4-2-2-2-2-4-4-4-4---------------------
E|--4-4-4-4-2-2-2-2-0-0-0-0-2-2-2-2---------------------

GUITAR B

e|------------------------------------------------------
B|--------1-------1---------1---------------------------
G|----------0-------0---------0-------------------------
D|------2-------2---------2-----------------------------
A|-----2-------2--------2-------------------------------
E|------------------------------------------------------



"God must hate me"...       |"God must hate me"...  
e|--------------------------|----------------------------
B|--4-4---------------------|-4-4------------------------
G|--4-4-4-4-----------------|-4-4-4-4--------------------
D|--2-2-4-4--6-6-6--2-2-2-2-|-2-2-4-4--6-6-6--2-2-2-2----
A|------2-2--6-6-6--2-2-2-2-|-----2-2--6-6-6--2-2-2-2----
E|-----------4-4-4--0-0-0-0-|----------4-4-4--0-0-0-0----



"God must hate me"...       |"God must hate me"...  
e|--------------------------|----------------------------
B|--4-4---------------------|-4-4------------------------
G|--4-4-4-4-----------------|-4-4-4-4--------------------
D|--2-2-4-4--6-6-6--2-2-2-2-|-2-2-4-4--6-6-6--2-2-2-2----
A|------2-2--6-6-6--2-2-2-2-|-----2-2--6-6-6--2-2-2-2----
E|-----------4-4-4--0-0-0-0-|----------4-4-4--0-0-0-0----



End
e|------------------------------------------------------
B|------------------------------------------------------
G|------------------------------------------------------
D|-- 8x-8x-8x-8x-6x-6x-6x-6x-4~-------------------------
A|---8x-8x-8x-8x-6x-6x-6x-6x-4~-------------------------
E|---6x-6x-6x-6x-4x-4x-4x-4x-2~-------------------------

ok this is my version of this song...so I think I did make mistakes..but if 
there're something wrong about this just e-mail me at:FNS_FRANCO@hotmail.com
And that's it.  
And if you don't like it, you can Suck My...
enjoy!!
Comments