Simple Plan - Everytime Chords & Tabs

 

Everytime Chords & Tabs

Simple Plan Chords & Tabs

Version: 2 Type: Tab 0 ratings
1 star 2 stars 3 stars 4 stars 5 stars
comments

Everytime Tab

8- Everytime by Simple Plan
Still not getting any
Tabbed by jlebc

For any questions or comments mail me at: punk_855@hotmail.com
If you can, mail me in french please.
========================================================================


Solo part:
[ Tab from: http://www.guitartabs.cc/tabs/s/simple_plan/everytime_tab_ver_2.html ]
E--------------------------------|
B----7b-6-4-4b-----6-4---6-4-----|
G--6-------6-----6-----6---------|
D--------------------------------|
A--------------------------------|
E--------------------------------|

E--------------------------------|
B----7b-6-4-4b-----6-4---6-4-----|
G--6-------6-----6-----6-----6b--|
D--------------------------------|
A--------------------------------|
E--------------------------------|
Comments