Simple Plan - Dont Wanna Think About You Chords & Tabs

 

Dont Wanna Think About You Chords & Tabs

Simple Plan Chords & Tabs

Version: 2 Type: Tab 0 ratings
1 star 2 stars 3 stars 4 stars 5 stars
comments

Dont Wanna Think About You Tab

Song: "Don't Wanna Think About You"
Band: Simple Plan
Album: Don't Wanna Think About You - Single
Tabbed By: CheezeBiskit \m/ (-_-) \m/
E-Mail: gnarlycharlie2001@yahoo.com 

This song is from the movie "Scooby Doo 2".  Not many people have probably heard this
song.  I downloaded this song from iTunes so I've heard it a lot!  Buy the "Scooby Doo 2 Soundtrack"!!!
Have fun!!!

Intro: Guitar 1
eb|-------------------------------------------------------------------|
Bb|-------------------------------------------------------------------|
Gb|--7-7-77-7-7--7-7-77-7-7--7-7-77-7-7--7-7-77-----------------------|
Db|--x-x-xx-x-x--x-x-xx-x-x--x-x-xx-x-x--x-x-xx-----------------------|
Ab|--5-5-55-5-5--5-5-55-5-5--5-5-55-5-5--5-5-55-----------------------|
Eb|-------------------------------------------------------------------|

Pre-Verse: Guitar 1 (x2)
eb|-------------------------------------------------------------|-----|
Bb|-------------------------------------------------------------|-----|
Gb|--7-7-7-7-7-9-11-7-7-7-7-7-9-11-7-7-7-7-7-9-11-9-9-9-9-9-7-11|--9~-|
Db|--7-7-7-7-7-9-11-7-7-7-7-7-9-11-7-7-7-7-7-9-11-9-9-9-9-9-7-11|--9~-|
Ab|--5-5-5-5-5-7-9--5-5-5-5-5-7-9--5-5-5-5-5-7-9--7-7-7-7-7-5-9-|--7~-|
Eb|-------------------------------------------------------------|-----|
|                                                                     | 
Pre-Verse: Guitar 2 (x2)                                              |
eb|-------------------------------------------------------------------|
Bb|-------------------------------------------------------------------|
Gb|--7-7-7-7-7-7-7-7-7-7-7-7------------------------------------------|
Db|--7-7-7-7-7-7-7-7-7-7-7-7--5-5-5-5-5-5--7-7-7-7-7-7~---------------|
Ab|--5-5-5-5-5-5-5-5-5-5-5-5--5-5-5-5-5-5--7-7-7-7-7-7~---------------|
Eb|---------------------------3-3-3-3-3-3--5-5-5-5-5-5~---------------|

Pre-Chorus Guitar 1
eb|-------------------------------------------------------------------|
Bb|-------------------------------------------------------------------|
Gb|--------6------------4------------6--------------------------------|
Db|------7---7--------5---5--------7---7----5-------------------------|
Ab|----7-------7----5-------5----7-------7--5-------------------------|
Eb|--5------------3------------5------------3-------------------------|

Chorus: Guitar 1&2 (x2)
eb|-------------------------------------------------------------------|
Bb|-------------------------------------------------------------------|
Gb|--7-7-7-7-7-7-7-7--------------------------------------------------|
Db|--7-7-7-7-7-7-7-7--7-7-7-7-7-7-7-7--9-9-9-9-9-9-9-9-5-5-5-5-5-5-5-|
Ab|--5-5-5-5-5-5-5-5--7-7-7-7-7-7-7-7-9-9-9-9-9-9-9-9-5-5-5-5-5-5-5-|
Eb|-------------------5-5-5-5-5-5-5-5--7-7-7-7-7-7-7-7--3-3-3-3-3-3-3-|
[ Tab from: http://www.guitartabs.cc/tabs/s/simple_plan/dont_wanna_think_about_you_tab_ver_2.html ]
Continued:
eb|-------------------------------------------------------------------|
Bb|-------------------------------------------------------------------|
Gb|--7-7-7-7-7-7-7-7--------------------------------------------------|
Db|--7-7-7-7-7-7-7-7--7-7-7-7-7-7-7-7--9-9-9-9-9-9-9-9--7-7-7-7-7-7-7-|
Ab|--5-5-5-5-5-5-5-5--7-7-7-7-7-7-7-7--9-9-9-9-9-9-9-9-7-7-7-7-7-7-7-|
Eb|-------------------5-5-5-5-5-5-5-5-7-7-7-7-7-7-7-7--5-5-5-5-5-5-5-|

Post-Chorus: Guitars 1&2 (x2)
eb|-------------------------------------------------------------------|
Bb|-------------------------------------------------------------------|
Gb|-------------------------------------------------------------------|
Db|--2-2-2-2-2-2-2-2--5-5-5-5-5-5-5-5---------------------------------|
Ab|--2-2-2-2-2-2-2-2--5-5-5-5-5-5-5-5---------------------------------|
Eb|--0-0-0-0-0-0-0-0--3-3-3-3-3-3-3-3---------------------------------|

{Return To Pre-Verse (Guitar 1&2)}

{Return To Pre-Chorus (Guitar 1)}

{Return To Chorus (Guitar 1&2)}

{Return To Post-Chorus (Guitar 1&2)}

Pre-Bridge: Guitar 1&2
eb|-------------------------------------------------------------------|
Bb|-------------------------------------------------------------------|
Gb|-------------------------------------------------------------------|
Db|--7-7-7-7-7-7-7-7-7-7-7-7------------------------------------------|
Ab|--7-7-7-7-7-7-7-7-7-7-7-7------------------------------------------|
Eb|--5-5-5-5-5-5-5-5-5-5-5-5------------------------------------------|

Bridge: Guitar 1&2
eb|-------------------------------------------------------------------|
Bb|-------------------------------------------------------------------|
Gb|---------------------------------------------7-7-7-6-6-6-----------|
Db|--9-9-9-9-9-9-9--5-5-5-5-5-5-5--7-7-7-7-7-7-7-7-7-6-6-6-----------|
Ab|--9-9-9-9-9-9-9--5-5-5-5-5-5-5--7-7-7-7-7-7--5-5-5-4-4-4-----------|
Eb|--7-7-7-7-7-7-7--3-3-3-3-3-3-3--5-5-5-5-5-5------------------------|

{Return To Bridge (Guitar 2)}

Bridge Fill: Guitar 1
eb|-------------------------------|-----------------------------------|
Bb|-------------------------------|-----------------------------------|
Gb|-------------------------------|-----------------------------------|
Db|--9-11-12----------------------|---14-12-11------------------------|
Ab|--9-11-12----------------------|---14-12-11------------------------|
Eb|--7-9--10----------------------|---12-10-9-------------------------|

Interlude: Guitar 1 (I know this isn't correct, but hey, it sounds very very close.)
eb|-------------------------------------------------------------------|
Bb|--10~-----------------10~------------------------------------------|
Gb|---7~--9~--11~--7~-----7~--9~--7~~~--------------------------------|
Db|-------7~---9~--5~---------7~--5~~~--------------------------------|
Ab|-------------------------------------------------------------------|
Eb|-------------------------------------------------------------------|

{Return To Chorus}

{Return To Post-Chorus}

Outro:
{Guitar 1 Plays Pre-Verse}{Guitar 2 Plays Chorus}
eb|-------------------------------------------------------------------|
Bb|-------------------------------------------------------------------|
Gb|-------------------------------------------------------------------|
Db|--5-5-5-5-5-5-5--5-5-5-5-5-5-5--5-5-5-5-5-7-5-4-5~~~~~~~~~~~~~~~~~~|
Ab|--5-5-5-5-5-5-5--5-5-5-5-5-5-5--5-5-5-5-5-7-5-4-5~~~~~~~~~~~~~~~~~~|
Eb|--3-3-3-3-3-3-3--3-3-3-3-3-3-3--3-3-3-3-3-5-3-2-3~~~~~~~~~~~~~~~~~~|

That's it!  It's missing a few parts in the "Verse" so E-Mail me if u have any suggestions!  Thanx!!!
Comments