Simple Plan - Crazy Chords & Tabs

 

Crazy Chords & Tabs

Simple Plan Chords & Tabs

Version: 7 Type: Tab 0 ratings
1 star 2 stars 3 stars 4 stars 5 stars
comments

Crazy Tab

Band - Simple Plan
Song - Crazy
Album - Still Not Getting Any...
Guitar 1 - Jeff Stinco
Guitar 2 - Sebastien Lefebvre

Guitar 1

Intro:x10 0:00
E|-----------18----------------------------------------|
B|---16-18-16--16-18-16--------------------------------|
G|15---------------------------------------------------|
D|-----------------------------------------------------|
A|-----------------------------------------------------|
E|-----------------------------------------------------|

Verse 1:x8 0:26
E|-----------18----------------------------------------|
B|---16-18-16--16-18-16--------------------------------|
G|15---------------------------------------------------|
D|-----------------------------------------------------|
A|-----------------------------------------------------|
E|-----------------------------------------------------|

Chorus:x10 0:48
E|-----------18----------------------------------------|
B|---16-18-16--16-18-16--------------------------------|
G|15---------------------------------------------------|
D|-----------------------------------------------------|
A|-----------------------------------------------------|
E|-----------------------------------------------------|

Verse 2:x1 1:14
E|-----------------------------------------------------|
B|16-16-15--16-16-15--16-16-15--16-16-15---------------|
G|--------15--------15--------15--------15-------------|
D|-----------------------------------------------------|
A|-----------------------------------------------------|
E|-----------------------------------------------------|

Verse 2: Cont.
E|--------------------------------------------15-------|
B|16-16-18-15-16-16-18-15-16-16-15-18-16-16-18---------|
G|-----------------------------------------------------|
D|-----------------------------------------------------|
A|-----------------------------------------------------|
E|-----------------------------------------------------|

Chorus:x8 1:35
E|-----------18----------------------------------------|
B|---16-18-16--16-18-16--------------------------------|
G|15---------------------------------------------------|
D|-----------------------------------------------------|
A|-----------------------------------------------------|
E|-----------------------------------------------------|

Solo:x2 1:57(Lisson for Timeing)
E|---------------------------------------------------------|
B|---------------------------------------------------------|
G|12-12-10-12-12-10-8--15-13-12-15-13-12-15-13-12-15-13-12-|
D|---------------------------------------------------------|
A|---------------------------------------------------------|
E|---------------------------------------------------------|

Verse 1:x7 2:18
E|-----------18----------------------------------------|
B|---16-18-16--16-18-16--------------------------------|
G|15---------------------------------------------------|
D|-----------------------------------------------------|
A|-----------------------------------------------------|
E|-----------------------------------------------------|

Chorus:x16 2:40
E|-----------18----------------------------------------|
B|---16-18-16--16-18-16--------------------------------|
G|15---------------------------------------------------|
D|-----------------------------------------------------|
A|-----------------------------------------------------|
E|-----------------------------------------------------|

Outro: 3:22(Until you want to stop)
E|-----------18----------------------------------------|
B|---16-18-16--16-18-16--------------------------------|
G|15---------------------------------------------------|
D|-----------------------------------------------------|
A|-----------------------------------------------------|
E|-----------------------------------------------------|


Guitar 2
[ Tab from: http://www.guitartabs.cc/tabs/s/simple_plan/crazy_tab_ver_7.html ]
Intro: x1 0:05 (Hold to a 16 count or stroke 16 times)
E|-----------------------------------------------------------------|
B|-----------------------------------------------------------------|
G|-8---------------5-----------------------------------------------|
D|-8---------------5---------------6---------------8---------------|
A|-6---------------3---------------6---------------8---------------|
E|---------------------------------4---------------6---------------|

Verse: Guitar 1

Chorus: 0:48 x1 (Stroke 16 times)
E|-----------------------------------------------------------------|
B|-----------------------------------------------------------------|
G|-8---------------5-----------------------------------------------|
D|-8---------------5---------------6---------------8---------------|
A|-6---------------3---------------6---------------8---------------|
E|---------------------------------4---------------6---------------|

Verse: Guitar 1

Pre Chorus: x1  ((1:33-1:34)A little break in between both)
E|-----------------------------------------------------------------|
B|-----------------------------------------------------------------|
G|-----------------------------------------------------------------|
D|-88--------88----------------------------------------------------|
A|-88--------88----------------------------------------------------|
E|-66--------66----------------------------------------------------|

Chorus: 1:35 x1 (Stroke 16 times)
E|-----------------------------------------------------------------|
B|-----------------------------------------------------------------|
G|-8---------------5-----------------------------------------------|
D|-8---------------5---------------6---------------8---------------|
A|-6---------------3---------------6---------------8---------------|
E|---------------------------------4---------------6---------------|

Solo: x2 1:57 (Not saying this is 100% correct, but this is how my band plays it.It sounds fine)
E|-----------------------------------------------------------------|
B|-----------------------------------------------------------------|
G|-----------------------------------------------------------------|
D|-10-10-8-10--10-8-6--6-6-6-6-6-6-6-10-10-8-6---8--8-8-8-8-8-8-8--|
A|-10-10-8-10--10-8-6--6-6-6-6-6-6-6-10-10-8-6---8--8-8-8-8-8-8-8--|
E|-----------------------------------------------------------------|

Verse: 2:18 x 1(Acustic Guitar, play to 16 count all but last one go to 8 count for that 
let it ring, or lissong to song and figure out the struming)
E|-----------------------------------------------------------------|
B|-----------------------------------------------------------------|
G|-8---------------5-----------------------------------------------|
D|-8---------------5---------------6---------------8---------------|
A|-6---------------3---------------6---------------8---------------|
E|---------------------------------4---------------6---------------|

Chorus:x2 2:40
E|-----------------------------------------------------------------|
B|-----------------------------------------------------------------|
G|-8---------------5-----------------------------------------------|
D|-8---------------5---------------6---------------8---------------|
A|-6---------------3---------------6---------------8---------------|
E|---------------------------------4---------------6---------------|

That is about it. There is a guitar 3 in the song if you lisson closely, but i have not 
that part out yet. When i do i will add it to this one or a nother one. i am not going 
say that this is a perfect tab, this is just how my band plays it, and it sounds just
fing to me. i tried to make this tab as simple as possible so you got to read the stuff above 
tab. This is my first tab, but i am no stranger to tabs.This is an awsome song.
Comments