Simple Plan - Crazy Chords & Tabs

 

Crazy Chords & Tabs

Simple Plan Chords & Tabs

Version: 4 Type: Tab 0 ratings
1 star 2 stars 3 stars 4 stars 5 stars
comments

Crazy Tab

Hi! Thi is the first tab I wrote so it's not so good.

I am not so good at english but I hope you understand me anyway...

1st guitar:

e |----------------18--------------------------18---------------------|
A |---------18------------18-------------18-----------18--------------|
D |------20----20-----20-----20-------20----20-----20----20-----------|
G |---20--------------------------20----------------------------------|
B |-------------------------------------------------------------------|
E |-------------------------------------------------------------------|

If you think it's difficult to play as high you can play like this

e |--------------6---------------------------6------------------------|
A |---------6----------6--------------6------------6------------------|
D |------8----8-----8-----8--------8-----8------8-----8---------------|
G |---8-------------------------8-------------------------------------|
B |-------------------------------------------------------------------|
E |-------------------------------------------------------------------|
[ Tab from: http://www.guitartabs.cc/tabs/s/simple_plan/crazy_tab_ver_4.html ]
This guitar continue to play like this almost the whole song (not on the bridge).

The other guitar play like this:.....

e |-----------------------------------------------------------|
A |-----------------------------------------------------------|
D |---8-------------------------------------------------------|
G |---8-----------10------------6------------8----------------|
B |---6-----------10------------6------------8----------------|
E |---------------8-------------4------------6----------------|

...on the intro and chorus, I think it is quiet on the verse.

The bridge goes like this:

e |------------------------------------------------------------------------|
A |------------------------------------------------------------------------|
D |------------------------------------------------------------------------|
G |-------5--5---3--5-----3--3------------------3---5-5--3--------3--------|
B |-------------------------------6--------------------------6-------------|
E |------------------------------------------------------------------------|

I don't know what the other guitar is playing on the bridge


The last chorus you just transponate it 2 steps higher.
Comments