Simple Plan - Crazy Chords & Tabs

 

Crazy Chords & Tabs

Simple Plan Chords & Tabs

Version: 3 Type: Tab 0 ratings
1 star 2 stars 3 stars 4 stars 5 stars
comments

Crazy Tab

   
-------------------------------------------------------------------------------
			     Crazy - Simple Plan
-------------------------------------------------------------------------------
Tabbed by: MrClean
Email:

Tuning: EADGBE

Intro (with disortion) (Hammer on)

e|-------------------------------------------------------------------------|
B|-------------------------------------------------------------------------|
G|8888888888888888---------------------------------------------------------|
D|8888888888888888-10101010101010101010101010101010-6666666666666666-------|
A|6666666666666666-10101010101010101010101010101010-6666666666666666-------|
E|------------------8-8-8-8-8-8-8-8-8-8-8-8-8-8-8-8-4444444444444444-------|

e|----------------|
B|----------------|   (Let the last strum ring)
G|----------------|
D|8888888888888888
A|8888888888888888
E|6666666666666666

Verse 1 (there isnt really any guitar in the verse, but if u wanna put in ur own thing 
the intro during the verses)

Chorus (with distortion) (Hammer on)

e|---------------------------------------------------------------------------|
B|---------------------------------------------------------------------------|
G|8888888888888888-----------------------------------------------------------|
D|8888888888888888-10101010101010101010101010101010-6666666666666666---------|
A|6666666666666666-10101010101010101010101010101010-6666666666666666---------|
E||-----------------8-8-8-8-8-8-8-8-8-8-8-8-8-8-8-8-4444444444444444---------|

e|----------------|
B|----------------|     Let the last strum ring
G|----------------|
D|8888888888888888
A|8888888888888888
E|6666666666666666

Verse 2 (towards the end of the verse he plays this palm mute)
[ Tab from: http://www.guitartabs.cc/tabs/s/simple_plan/crazy_tab_ver_3.html ]
e|---------------------------------------------------------------------------|
B|---------------------------------------------------------------------------|
G|---------------------------------------------------------------------------|
D|88--88---88----------------------------------------------------------------|
A|88--88---88----------------------------------------------------------------|
E|66--66---66----------------------------------------------------------------|

Repeat Chorus

Bridge

e|---------------------------------------------------------------------------|
B|---------------------------------------------------------------------------|
G|888888---------------8888888--------------888888-------------8888888-------|
D|888888-8-6--6666666--8888888-8--6666666---888888-8-6-6666666-8888888-------|
A|666666-8-6--6666666--6666666-8--6666666---666666-8-6-6666666-6666666-------|
E|-------6-4--4444444----------6--4444444----------6-4-4444444---------------|

e|-----------|
B|-----------|  (Let the last strum ring)
G|-----------|
D|8--66666666
A|8--66666666
E|6--44444444

Verse 3 (play the intro if you want)

Chorus 2 (Repeat 2x, HAMMER ON REAL HARD, WITH DISTORTION

e|---------------------------------------------------------------------------|
B|---------------------------------------------------------------------------|
G|10101010101010101010101010101010-------------------------------------------|
D|10101010101010101010101010101010-12121212121212121212121212121212----------|
A|8-8-8-8-8-8-8-8-8-8-8-8-8-8-8-8--12121212121212121212121212121212----------|
E|---------------------------------10101010101010101010101010101010----------|

e|---------------------------------------------------------------------------|
B|---------------------------------------------------------------------------|
G|---------------------------------------------------------------------------|
D|8888888888888888-10101010101010101010101010101010--------------------------|
A|8888888888888888-10101010101010101010101010101010--------------------------|
E|6666666666666666-8-8-8-8-8-8-8-8-8-8-8-8-8-8-8-8---------------------------|
Comments