Simple Plan - Crazy Chords & Tabs

 

Crazy Chords & Tabs

Simple Plan Chords & Tabs

Version: 2 Type: Tab 0 ratings
1 star 2 stars 3 stars 4 stars 5 stars
comments

Crazy Tab

-------------------------------------------------------------------------------
			     Crazy - Simple Plan
-------------------------------------------------------------------------------
Tabbed by: George Huish
Email:

Tuning: standard

Intro/Verse

e|---------------------------------------------------------------------------|
B|---------------------------------------------------------------------------|
G|----8---5------------------------------------------------------------------|
D|----8---5---6---8----------------------------------------------------------|
A|----6---3---6---8----------------------------------------------------------|
E|------------4---6----------------------------------------------------------|

Last Verse
[ Tab from: http://www.guitartabs.cc/tabs/s/simple_plan/crazy_tab_ver_2.html ]
e|---------------------------------------------------------------------------|
B|---------------------------------------------------------------------------|
G|----10--7------------------------------------------------------------------|
D|----10--7---8---10---------------------------------------------------------|
A|----8---5---8---10---------------------------------------------------------|
E|------------6---8----------------------------------------------------------|

Solo - might not be totally right so just mess around in this area and see
what you can come up with.

e|---------------------------------------------------------------------------|
B|---------------------------------------------------------------------------|
G|---------------------------------------------------------------------------|
D|--5-5-3-5--5-3-------------------------------------------------------------|
A|---------------6-----------------------------------------------------------|
E|---------------------------------------------------------------------------|
Comments