Simple Plan - Cant Keep My Hands Off You Chords & Tabs

 

Cant Keep My Hands Off You Chords & Tabs

Simple Plan Chords & Tabs

Version: 1 Type: Bass Tab 0 ratings
1 star 2 stars 3 stars 4 stars 5 stars
comments

Cant Keep My Hands Off You Bass Tab

There were no bass tabs to this song so, I thought I'd tab them out myself! Enjoy :)

Intro/ Verses
G|------------------------|
D|------------------------|
A|5(x7)-0(x7)-------------|
E|------------3(x7)-5(x7)-|

Pre-Chorus
G|-------------------|
D|-------------------|
A|------------5(x16)-|
E|5(x8)-3(x8)--------|

G|-------------|
D|-------5(x10)|
A|5(x16)-------|
E|-------------|
[ Tab from: http://www.guitartabs.cc/tabs/s/simple_plan/cant_keep_my_hands_off_you_btab.html ]
Chorus
G|------------------------------------------|
D|------------------------------------------|
A|5(x8)-0(x8)-2(x8)--------5(x8)-0(x8)------|
E|------------------3(x8)-------------3(x16)|

G|-------------------2h4------------|
D|-------------22222h4--------------|
A|0(x16)-2(x8)----------------------|
E|-----------------------3(x8)-5----|

Bridge
(All downstrokes)
G|---------------------------|
D|---------------------------|
A|5(x8)-4(x8)----------------|
E|------------3(x8)-5(x8)----| play this 4 times

Play the chorus a couple of times and then end the song on this note
G|----|
D|----|
A|5---|
E|----|

Comments