Simple Plan - Addicted Chords & Tabs

 

Addicted Chords & Tabs

Simple Plan Chords & Tabs

Version: 6 Type: Tab 0 ratings
1 star 2 stars 3 stars 4 stars 5 stars
comments

Addicted Tab

   
-------------------------------------------------------------------------------
			     Addicted - Simple Plan
-------------------------------------------------------------------------------

Artist: Simple Plan
Song: Addicted (Track 7)
Albulm: No Pads, No Helmets...Just Balls
Tabbed by: ZeroisGreatman
Tuning: Half-Step Down - Eb Ab Db Gb Bb Gb

Intro/Chorus-Fill: "Heart-breaker"
Gtr 1: [w/Distortion]
eb|----------15-14--------------15-14--------------15-14--------------15-14----|
Bb|----15----------15-----15----------15-----15----------15-----15----------15-|
Gb|-14----14-----------14----14-----------14----14-----------14----14----------|
Db|----------------------------------------------------------------------------|
Ab|----------------------------------------------------------------------------|
Eb|----------------------------------------------------------------------------|

Gtr 2: Chorus: [w/Distortion]
"I'm tring, to forget that, I'm addicted to you"
"But I want it and I need it, I'm addicted to you"
eb|---------------------------------------------------------------------------|
Bb|---------------------------------------------------------------------------|
Gb|-7-7-7-7-7-7-7-7-7-7-7-7---------------------------------------------------|
Db|-7-7-7-7-7-7-7-7-7-7-7-7--/5-5-5-5-5-5--/7-7-7-7-7-7-----------------------|
Ab|-5-5-5-5-5-5-5-5-5-5-5-5--/5-5-5-5-5-5--/7-7-7-7-7-7-----------------------|
Eb|--------------------------/3-3-3-3-3-3--/5-5-5-5-5-5-----------------------|

Verse: Gtr 2 comes in when he says...[w/Distortion] (. = Palm Mute)
"I'm a dick, I'm addicted to you"/"Still a dick, I'm addicted to you."
"Do you think, I deserve this?"
eb|---------------------------------------------------------------------------|
Bb|---------------------------------------------------------------------------|
Gb|-4-4-4-4-4-4-4-4-4-4-4-4-4-4-4-4-------------------------------------------|
Db|-5-5-5-5-5-5-5-5-5-5-5-5-5-5-5-5-------------------------------------------|
Ab|-5-5-5-5-5-5-5-5-5-5-5-5-5-5-5-5-------------------------------------------|
Eb|---------------------------------------------------------------------------|
    . . .   . . .   . . .   . . .
  
Pre-Chorus: "I tried to make you happy...But you left any way"
"I tried to make you happy, I did all that I could"
"Just to keep you, but you left anyway..."

Gtr 1 [w/Distortion]
eb|---------------------------------------------------------------------------|
Bb|---------------------------------------------------------------------------|
Gb|-9-9-9-9-9-9-9-9--12-12-12-12--14-14-14-14---------------------------------|
Db|-x-x-x-x-x-x-x-x---x--x--x--x---x--x--x--x---------------------------------|
Ab|-7-7-7-7-7-7-7-7--10-10-10-10--12-12-12-12---------------------------------|
Eb|---------------------------------------------------------------------------|

Gtr 2 [w/Distortion]
eb|---------------------------------------------------------------------------|
Bb|---------------------------------------------------------------------------|
Gb|---------------------------------------------------------------------------|
Db|-2-2-2-2-2-2-2-2--/5-5-5-5--/7-7-7-7---------------------------------------|
Ab|-2-2-2-2-2-2-2-2--/5-5-5-5--/7-7-7-7---------------------------------------|
Eb|-0-0-0-0-0-0-0-0--/3-3-3-3--/5-5-5-5---------------------------------------|

Chorus Part 2: (Same as Pre-Chorus)
"Now it's over, I can't forget what you said."
"And I'll never, gonna do this again" 

Bridge: "How long will I bee waiting? Until the end of time"
Gtr 2: [Clean]
eb|--------------3-3-3-3-----------------------------------------------------|
Bb|--------------3-3-3-3--2-2-2-2--------------------------------------------|
Gb|-1-1-1-1-1-1--0-0-0-0--2-2-2-2--------------------------------------------|
Db|-2-2-2-2-2-2--0-0-0-0--2-2-2-2--------------------------------------------|
Ab|-2-2-2-2-2-2--2-2-2-2--0-0-0-0--------------------------------------------|
Eb|-0-0-0-0-0-0--3-3-3-3-----------------------------------------------------|
[ Tab from: http://www.guitartabs.cc/tabs/s/simple_plan/addicted_tab_ver_6.html ]
"I don't know why I'm still waiting, I can't make you mine"
Gtr 2 [w/Distortion]
eb|---------------------------------------------------------------------------|
Bb|---------------------------------------------------------------------------|
Gb|---------------------------------------------------------------------------|
Db|-2-2-2-2-2-2-2-2--/5-5-5-5--/7-7-7-7---------------------------------------|
Ab|-2-2-2-2-2-2-2-2--/5-5-5-5--/7-7-7-7---------------------------------------|
Eb|-0-0-0-0-0-0-0-0--/3-3-3-3--/5-5-5-5---------------------------------------|

Gtr 1: Solo [w/Distortion] Part 1
eb|-------------------------------------------------------------------|
Bb|-------------------------------------------------------------------|
Gb|-7-7-7-7--9-9-9-9-11-11-11-11--12-12-12-12-------------------------|
Db|-x-x-x-x--x-x-x-x--x--x--x--x---x--x--x--x-------------------------|
Ab|-5-5-5-5--7-7-7-7--9--9--9--9--10-10-10-10-------------------------|
Eb|-------------------------------------------------------------------|

Gtr 1: Solo [w/Distortion] Part 2
eb|-------------------------------------------------------------------|
Bb|-------------------------------------------------------------------|
Gb|-7-7-7-7--9-9-9-9-12-12-12-12--11-11-11-11-------------------------|
Db|-x-x-x-x--x-x-x-x--x--x--x--x--x--x--x--x--------------------------|
Ab|-5-5-5-5--7-7-7-7-10-10-10-10--9--9--9--9--------------------------|
Eb|-------------------------------------------------------------------|

Gtr 1: Solo [w/Distortion] Part 1
eb|-------------------------------------------------------------------|
Bb|-------------------------------------------------------------------|
Gb|-7-7-7-7--9-9-9-9-11-11-11-11--12-12-12-12-------------------------|
Db|-x-x-x-x--x-x-x-x--x--x--x--x---x--x--x--x-------------------------|
Ab|-5-5-5-5--7-7-7-7--9--9--9--9--10-10-10-10-------------------------|
Eb|-------------------------------------------------------------------|

Gtr 1: Solo [w/Distortion] Part 2
eb|-------------------------------------------------------------------|
Bb|-------------------------------------------------------------------|
Gb|-7-7-7-7--9-9-9-9-12-12-12-12--11-11-11-11-------------------------|
Db|-x-x-x-x--x-x-x-x--x--x--x--x--x--x--x--x--------------------------|
Ab|-5-5-5-5--7-7-7-7-10-10-10-10--9--9--9--9--------------------------|
Eb|-------------------------------------------------------------------|

Gtr 1: Solo [w/Distortion] Finale
eb|-------------------------------------------------------------------------|
Bb|-------------------------------------------------------------------------|
Gb|-9-9-9-11-11-11-12-12-12-11-11-11-12-12-12-14-14-14-16-16-16-18-18-18-19-|
Db|-x-x-x--x--x--x--x--x--x--x--x--x--x--x--x--x--x--x--x--x--x--x--x--x--x-|
Ab|-7-7-7--9--9--9-10-10-10--9--9--9-10-10-10-12-12-12-14-14-14-16-16-16-17-|
Eb|-------------------------------------------------------------------------|


| /  slide up
| \  slide down
| h  hammer-on
| p  pull-off
| ~  vibrato
| +  harmonic
| x  Mute note

[Lyrics]
(Intro)
(Verse 1)
I heard your doing ok, but I want you to know,
I'm a dick, I'm addicted to you.
I can't pretend I don't care when You don't think about me.
Do you think I deserve this?

(Pre-chorus 1)
I tried to make you happy but you left anyway.

(Chorus)
I'm tring to forget that, I'm addicted to you.
But I want it, And I need it, I'm addicted to you.
Now it's over, Can't forget what you said.
And I'll never want to do this again.

(Chorus fill)
Heart breaker, Heart breaker, Heart breaker, Heart breaker.

(Verse 2)
Since the day I met you, and after all we've been through,
Still a dick, I'm addicted to you.
I think you know that it's true, I'd run a thousand miles just to get you.
Do you think, I deserve this?

(Pre-chorus 2)
I tried to make you happy, I did all that I could, 
Just to keep you, but you left anyway.

(Bridge)
How long will I be waiting? Until the end of time.
I don't know why I'm still waiting, I can't make you mine.

(solo)

(Outro)
Heart breaker, I'm addicted to you.

===============================================================================
Comments