Simple Plan - Addicted Chords & Tabs

 

Addicted Chords & Tabs

Simple Plan Chords & Tabs

Version: 5 Type: Tab 0 ratings
1 star 2 stars 3 stars 4 stars 5 stars
comments

Addicted Tab

addicted by simple plan

tuning: drop D


intro:

e -----9--------14---13---9---------------------- 4x
B --9-----9--------------------------------------
G -----------------------------------------------
D -----------------------------------------------
A -----------------------------------------------
D -----------------------------------------------



 then a second guitar comes in with this (guitar one keeps playing little riff)

e ----------------------------------------------- 2x
B -----------------------------------------------
G --6-6-6-6--6-6-6-6-----------------------------
D --6-6-6-6--6-6-6-6----4444-----6666------------
A --4-4-4-4--4-4-4-4----4444-----6666------------
D ----------------------4444-----6666------------


verses

e -----------------------------------------------
B -----------------------------------------------
G --666-6-4x-------------------------------------
D --666-6-------444-4--4x------------------------
A --444-4-------444-4----------------------------
D --------------444-4----------------------------

Pre-chorus

e -----------------------------------------------
B -----------------------------------------------
G -----------------------------------------------
D --1111----3333----4444-----6-------------------
A --1111----3333----4444-----6-------------------
D --1111----3333----4444-----6-------------------


Chorus

e -----------------------------------------------
B -----------------------------------------------
G --6666--6666---------6-------------------------
D --6666--6666----444--6---6666------------------
A --4444--4444----444--4---6666------------------
D ----------------444------6666------------------

[ Tab from: http://www.guitartabs.cc/tabs/s/simple_plan/addicted_tab_ver_5.html ]
second part
    (now it's over....)
e -----------------------------------------------
B -----------------------------------------------
G -----------------------------------------------
D --1111--3333--4444---6666----------------------
A --1111--3333--4444---6666----------------------
D --1111--3333--4444---6666----------------------


repeat intro for the "heartbreaker" part


Bridge:strum

e -----------------------------------------------
B -----------------------------------------------
G -----------------------------------------------
D ---4----3----1----6----------------------------
A ---4----3----1----6----------------------------
D ---4----3----1----6----------------------------

then

e -----------------------------------------------
B -----------------------------------------------
G -----------------------------------------------
D ---1111--3333--4444--4444--6666--6666---------
A ---1111--3333--4444--4444--6666--6666---------
D ---1111--3333--4444--4444--6666--6666----------

e -----------------------------------------------
B -----------------------------------------------
G -----------------------------------------------
D --4444--4444--6666--6666-----1111--3333--4444-
A --4444--4444--6666--6666-----1111--3333--4444--
D --4444--4444--6666--6666-----1111--3333--4444--

e -----------------------------------------------
B -----------------------------------------------
G -----------------------------------------------
D --6666-----------------------------------------
A --6666-----------------------------------------
D --6666-----------------------------------------


it repeats from now on
hope you like it and feel free to comment on it or rate it

coTTon baLL
Comments