Simple Plan - Addicted Chords & Tabs

 

Addicted Chords & Tabs

Simple Plan Chords & Tabs

Version: 4 Type: Tab 0 ratings
1 star 2 stars 3 stars 4 stars 5 stars
comments

Addicted Tab

   
Simple Plan - Addicted

Tabbed by: Evan Reyes (evanreyes@comcast.net)

This is an accurate tab for "Addicted" by Simple Plan. I don't even like the
song, but I figured out how to play it anyway. It's moderately entertaining to
play. I borrowed the intro from Geff S.

Tuning: 1/2 Step Down (Eb Ab Db Gb Bb Eb)

Intro (guitar 1):
e-----10-----15--14--10----------|
B--10----10----------------------|
G--------------------------------|
D--------------------------------|  
A--------------------------------|
E--------------------------------|

Intro (guitar 2):
e--------------------------|
B--------------------------|
G--7---7-------------------| 
D--7---7---5---7-----------|  
A--5---5---5---7-----------|
E----------3---5-----------|

Verse:
e--------------------------|
B--------------------------|
G--7---7-------------------| x2
D--7---7---5---5-----------|  
A--5---5---5---5-----------|
E----------3---3-----------|

Pre Chorus:
e--------------------------|
B--------------------------|
G------7-------------------|
D--2---7---5---7-----------|  
A--2---5---5---7-----------|
E--0-------3---5-----------|

Chorus:
e--------------------------|
B--------------------------|
G--7---7-------------------|
D--7---7---5---7-----------|  
A--5---5---5---7-----------|
E---------3---5------------|

e--------------------------|
B--------------------------|
G--------------------------|
D--2---7---2---7-----------|  
A--2---7---2---7-----------|
E--0---5---0---5-----------|

e--------------------------|
B--------------------------|
G------7-------------------|
D--5---7-------------------|  
A--5---5-------------------|
E--3-----------------------|

Intro x2

Verse

Pre chorus x2
[ Tab from: http://www.guitartabs.cc/tabs/s/simple_plan/addicted_tab_ver_4.html ]
Chorus 

Bridge:
e--------------------------|
B--------------------------|
G--------------------------|  x5
D--5---5---2---7-----------|  
A--5---5---2---7-----------|
E--3---2---0---5-----------|

e--------------------------|
B--------------------------|
G------7-------------------|
D--2---7---5---7---5---7---|  
A--2---5---5---7---5---7---|
E--0-------3---5---3---5---|

Pre chorus

Chorus (first part only)

Chorus

Intro

Lyrics:
Verse 1:
I heard you're doing okay 
But I want you to know
I'm a dick
I'm addicted to you
I can't pretend I don't care
When you don't think about me
Do you think I deserve this?

Pre chorus:
I tried to make you happy 
but you left anyway

Chorus:
I'm trying to forget that
I'm addicted to you
But I want it and I need it 
I'm addicted to you

Now it's over
Can't forget what you said
And I never wanna do this again
Heartbreaker

Verse 2:
Since the day I met you 
And after all we've been through
I'm still a dick
I'm addicted to you
I think you know that it's true
I'd run a thousand miles to get you
Do you think I deserve this?

Pre chorus:
I tried to make you happy
I did all that I could
Just to keep you
But you left anyway

Chorus:
I'm trying to forget that
I'm addicted to you
But I want it and I need it 
I'm addicted to you

Now it's over
Can't forget what you said
And I never wanna do this again
Heartbreaker

Bridge:
How long will I be waiting?
Until the end of time
I don't know why I'm still waiting
I can't make you mine

Chorus:
I'm trying to forget that
I'm addicted to you           x2
But I want it and I need it 
I'm addicted to you

Now it's over
Can't forget what you said
And I never wanna do this again
Heartbreaker

Outro:
Heartbreaker
I'm addicted to you
Comments