Simple Plan - Addicted Chords & Tabs

 

Addicted Chords & Tabs

Simple Plan Chords & Tabs

Version: 2 Type: Tab 0 ratings
1 star 2 stars 3 stars 4 stars 5 stars
comments

Addicted Tab

Simple plan  Addicted

Tabbed by Geff S. 
This is the first Addicted tab and i spend a lot of time on it so please dont copy it. 
Or if you do, put my name on it. Thanks. Im not sure about the Pre-Chorus so i let u 
kids find it alone. If u have it e-mail it thanks. Any questions or corrections: 
dude_wheres_geff@hotmail.com
 
(m) = muted
Black = Lead Guitar
Red = Second Guitar

   Intro
E----9---14-13-9---9---14-13-9---9---14-13-9---9---14-13-9-----||
B--9---9---------9---9---------9---9---------9---9-------------||
G--------------------------------------------------------------||
D--------------------------------------------------------------||  
A--------------------------------------------------------------||
E--------------------------------------------------------------||
[ Tab from: http://www.guitartabs.cc/tabs/s/simple_plan/addicted_tab_ver_2.html ]
  Intro
E----9---14-13-9---9---14-13-9---9---14-13-9---9---14-13-9-----||
B--9---9---------9---9---------9---9---------9---9---------9---||
G--6-6-6-6-6-6-6-6-6-6-6-6-6-6--------------------------------6||
D--6-6-6-6-6-6-6-6-6-6-6-6-6-6-4-4-4-4-4-4-4-6-6-6-6-6-6-6-6--6||
A-4-4-4-4-4-4-4-4-4-4-4-4-4-4-4-4-4-4-4-4-4-6-6-6-6-6-6-6-6--4||
E------------------------------2-2-2-2-2-2-2-4-4-4-4-4-4-4-4---||

  Riff
E--------------------------------------------------------------||
B--------------------------------------------------------------||
G--666-6--666-6--666-6--666-6----------------------------------||
D-666-6--666-6--666-6--666-6--444-4--444-4--444-4--444-4------||
A--444-4--444-4--444-4--444-4--444-4--222-2--222-2--222-2------||
E------------------------------222-2--222-2--222-2--222-2------||
   (m)    (m)    (m)    (m)    (m)    (m)    (m)    (m)

  Chorus
E----------------------------------------------------------------||
B----------------------------------------------------------------||
G--6666666-------6-----------------------------------------------||
D--6666666--444--6--6--------------------------------------------||
A--4444444--444--4--6--------------------------------------------||
E-----------222-----4--------------------------------------------||
Comments