Simple Plan - Addicted Chords & Tabs

 

Addicted Chords & Tabs

Simple Plan Chords & Tabs

Version: 6 Type: Bass Tab 0 ratings
1 star 2 stars 3 stars 4 stars 5 stars
comments

Addicted Bass Tab

   
Band: Simple Plan
Song: Addicted
Album: No Pads, No Helmets…Just Balls
Bassist: David Desrosiers
Tuning: Flats

* Let Note Ring
/ Slide

Intro:
Gb-------------------------------------------------------|
Db-------------------------------------------------------|
Ab-55555555555-------000000-55555555555-------000000-----|
Eb------------2333333------------------2333333-----------|

Verse:
Gb----------------------------------------------------|
Db----------------------------------------------------|
Ab-555555555555555555555555---------------------------|
Eb--------------------------333333333333333333333333--|

Gb-----------------------------------------------------|
Db-----------------------------------------------------|
Ab-555555555555555555-777-999--------------------------|
Eb---------------------------333333333333333333333333--|

Pre-chorus:
Gb-------------------------|
Db-------------------------|
Ab-------------------------|
Eb-000000-222222-333333-5--|

Chorus 1:
Gb------------------------------------------------------|
Db------------------------------------------------------|
Ab-55555555555------5-0000---55555555555------5-0000----|
Eb------------233333------32------------233333------32--|

Chorus 2:
Gb--------------------------------------------------------------------------|
Db--------------------------------------------------------------------------|
Ab-----------------------12-12109-777-999-101010-121614-121212121212--5*-5--|
Eb-000-222-33333-7-55555/---------------------------------------------------|

Pre-verse:
Gb--------------------------------------------------------|
Db-------------------------------------4555545-7777-9-11--|
Ab-55555555555-------0000---55555555555-------------------|
Eb------------2333333----32-------------------------------|

Verse:
Gb----------------------------------------------------|
Db----------------------------------------------------|
Ab-555555555555555555555555---------------------------|
Eb--------------------------333333333333333333333333--|

Gb-----------------------------------------------------|
Db-----------------------------------------------------|
Ab-555555555555555555-777-999--------------------------|
Eb---------------------------333333333333333333333333--|
[ Tab from: http://www.guitartabs.cc/tabs/s/simple_plan/addicted_btab_ver_6.html ]
Pre-Chorus 2:
Gb--------------------------------------------------------------------|
Db--------------------------------------------------------------------|
Ab--------------------------12-10-9-777777-101010101010-121212121212--|
Eb-000000-222222-3333333-555------------------------------------------|

Chorus 1:
Gb------------------------------------------------------|
Db------------------------------------------------------|
Ab-55555555555------5-0000---55555555555------5-0000----|
Eb------------233333------32------------233333------32--|

Chorus 2:
Gb-------------------------------------------------------------------------|
Db-------------------------------------------------------------------------|
Ab-----------------------12-12109-777-999-101010-121614-121212121212---5*--|
Eb-000-222-33333-7-55555/--------------------------------------------------|

Bridge
Gb----------------------------------------------------------------------|
Db----------------------------------------------------------------------|
Ab----------------------555555-777777-999999-10101010101010101010-1416--|
Eb-333333-222222-000000-------------------------------------------------|

Gb----------------------------------------------------|
Db----------------------------------------------------|
Ab-121212121212121212121212-141414141414141414141414--|
Eb----------------------------------------------------|

Gb---------------------------|
Db---------------------------|
Ab-161616161616161616161616/-
Eb---------------------------

Gb-------------------------------------------|
Db-------------------------------------------|
Ab-777777-999999-101010101010-12121212-1416--|
Eb-------------------------------------------|

Chorus 1: X2
Gb------------------------------------------------------|
Db------------------------------------------------------|
Ab-55555555555------5-0000---55555555555------5-0000----|
Eb------------233333------32------------233333------32--|

Chorus 2:
Gb-----------------------------------------------------------------------|
Db-----------------------------------------------------------------------|
Ab-----------------------12-12109-777-999-101010-121614-121212121212-5*--|
Eb-000-222-33333-7-55555/------------------------------------------------|

Gb--------|
Db--------|
Ab-121212-
Eb--------

Outro:
Gb----------------------------------------------------|
Db----------------------------------------------------|
Ab-55555555555-------0000---55555555555-------0000----|
Eb------------2333333----32------------2333333----32--|

Gb-------------------------------------------------------|
Db------------4555545777754------------------------------|
Ab-55555555555--------------55555555555-------000000-5*--|
Eb-------------------------------------2333333-----------|
Comments