Simple Plan - Addicted Chords & Tabs

 

Addicted Chords & Tabs

Simple Plan Chords & Tabs

Version: 4 Type: Bass Tab 0 ratings
1 star 2 stars 3 stars 4 stars 5 stars
comments

Addicted Bass Tab

   
'Addicted (bass)' by: Simple Plan


This is the first tab i ever made... Thanks to Incisor(that's my group) and also thanks 
to Babie.... Rock on....


Standard Tuning-E,A,D,G 
Timing- 4/4 time

Intro

G ------------------------------------------------------------|
D ------------------------------------------------------------|
A -555555555555-----------------------------------------------|
E --------------333333-555555---------------------------------|
   
G ------------------------------------------------------------|
D --------------555555-777777---------------------------------|
A -555555555555-----------------------------------------------|
E ------------------------------------------------------------|

Verse

G ------------------------------------------------------------|
D ------------------------------------------------------------|
A --555555555555555555555555----------------------------------|
E ---------------------------333333333333333333333333---------|

G ------------------------------------------------------------|
D ------------------------------------------------------------|
A --555555555555555555-777-999--------------------------------|
E -----------------------------333333333333333333333333-------|

Pre-Chorus 1

G ------------------------------------------------------------|
D ------------------------------------------------------------|
A ------------------------------------------------------------|
E --5-3-2-0--0000-2222-3333-5555------------------------------|

Chorus 

G ------------------------------------------------------------|
D ------------------------------------------------------------| (Do it 2x)
A -555555555555-----------------------------------------------|
E --------------333333-555555---------------------------------|



Pre-Chorus 2 (Now its over......)
[ Tab from: http://www.guitartabs.cc/tabs/s/simple_plan/addicted_btab_ver_4.html ]
G ----------------------------------------------------------------|
D ----------------------------------------------------------------|
A ----------------------------------------------------------------|
E -5-3-2-0-00-22-33-5555-s1212-5-3-2-0-00-22-33-55555555555-3~-5--|

Repeat Intro

Repeat Verse

Pre-Chorus 3

G -----------------------------|
D -----------------------------|
A -----------------------------|
E -0000-2222-3333-555-s1212----|

G ----------------------|
D ----------------------|
A ----------------------|
E -0000-2222-3333-5555--|

Repeat Chorus 

Pre-Chorus 4
G ------------------------------|
D ------------------------------|
A ------------------------------|
E -5-3-2-0-0-2-3-4-55--s1212----|

G --------------------------------|
D --------------------------------|
A --------------------------------|
E -5-3-2-0-0-2-3-4-55--s1212-10~--|


Bridge (I dont know why Im still waiting.........)

G ------------------------------------------------------------|
D ------------------------------------------------------------|
A -55-555----------------------555555-777777-999999-----------|
E --------333333-222222-000000--------------------------------|

G ------------------------------------------------------------|
D ------------------------------------------------------------|
A -101010101010101010101010-121212121212121212121212----------|
E ------------------------------------------------------------|
		
G ------------------------------------------------------------|
D ------------------------------------------------------------|
A -141414141414141414141414-161616161616161616161616----------|
E ------------------------------------------------------------|

G ------------------------------------------------------------|
D ------------------------------------------------------------|
A -777777-999999-101010101010-1212121212----------------------|
E ------------------------------------------------------------|
		
Repeat Chorus twice
 
Repeat Pre-Chorus 4

Repeat Chorus twice

Any comments, suggestions, corrections are welcome.
E-mail me at: x_cecutioner_13@yahoo.com
Comments