Simple Minds - Dont You Chords & Tabs

 

Dont You Chords & Tabs

Simple Minds Chords & Tabs

Version: 1 Type: Tab 0 ratings
1 star 2 stars 3 stars 4 stars 5 stars
comments

Dont You Tab

   
ARTIST : SIMPLE MINDS
SONG   : DON'T YOU
TUNING : STANDARD

INTRO

|-7/9---7/12-5-5/7-|
|-7/9---7/12-5-5/7-|
|-7/9---7/12-5-5/7-|
|-7/9---7/12-5-5/7-|
|-5/7---5/10-3-3/5-|
|------------------|

VERSES
|-0-0-0-0-0-0-0-0-0-0-0-0-0-0-0-0-0-0-0-0-0-0-0-0-0-0-0-0-0-0-0-0-|
|-0-0-0-0-0-0-0-0-0-0-0-0-0-0-0-0-0-0-0-0-0-0-0-0-0-0-0-0-0-0-0-0-|
|-9-9-9-9-9-9-9-9-7-7-7-7-7-7-7-7-6-6-6-6-6-6-6-6-7-7-7-7-7-7-7-7-|
|-9-9-9-9-9-9-9-9-7-7-7-7-7-7-7-7-7-7-7-7-7-7-7-7-7-7-7-7-7-7-7-7-|
|-7-7-7-7-7-7-7-7-5-5-5-5-5-5-5-5-7-7-7-7-7-7-7-7-5-5-5-5-5-5-5-5-|
|---------------------------------5-5-5-5-5-5-5-5-----------------|
[ Tab from: http://www.guitartabs.cc/tabs/s/simple_minds/dont_you_tab.html ]
RHYTHMIC CORUS
|-0-X-0-X-2-X-2-X-0-X-0-X-2-X-2-X-|
|-0-X-0-X-3-X-3-X-2-X-2-X-3-X-3-X-|
|-1-X-1-X-2-X-2-X-2-X-2-X-2-X-2-X-|
|-2-X-2-X-0-X-0-X-2-X-2-X-0-X-0-X-|
|-2-X-2-X---------0-X-0-X---------|
|-0-X-0-X-------------------------|

LEAD CORUS
|---------------------0-------------|
|-----------2-2-2-2-3---3-2-0---0---|
|-1-1-1-2-2-------------------2-----|
|---------------------------------0-|
|-----------------------------------|
|-----------------------------------|

BRIDGE
(I'm not sure about the struming but here are the chords in the right order)
  C G D A
|-0-3-2-0-|
|-1-0-3-2-|
|-0-0-2-2-|
|-2-0-0-2-|
|-3-2---0-|
|---3-----|
Comments