Simple Minded Peasants - Cereal Chords & Tabs

 

Cereal Chords & Tabs

Simple Minded Peasants Chords & Tabs

Version: 2 Type: Tab

Cereal Tab

Simple Minded Peasants
Cereal
Tabbed by: Bradley Steele

This is my band and my song so here it goes

Intro:
repeat 4x

---------1----------------------------------------------------|
-----1--2-2---------------------------------------------------|
----2--3------------------------------------------------------|
------------2--0----------------------------------------------|
-----------3--2-2---------------------------------------------|
-------------3------------------------------------------------|

Verse:
[ Tab from: http://www.guitartabs.cc/tabs/s/simple_minded_peasants/cereal_tab_ver_2.html ]
-------------------3-------------------------------------------|
------1---1----1-----------------------------------------------|
------2---2----------------------------------------------------|
------2---3----2-----------------------------------------------|
---------------3---2-------------------------------------------|
-------------------3-------------------------------------------|

Chorus: same as verse just faster

Words

Verse 1:
It was a cold day for our family yeah

just sitting at breakfast eating froot loops

next thing we know our cousin is gone

right from beneath our nose

sean disappeared

Chorus:

Seans in a cereal box

repeat 4x

Verse 2:

We went to Miss Cleo to figure it out

But that woman could not help us out

But one thing we know for sure is this

He ruined our breakfast thanks a lot

Chorus

Pre Final Chorus

Sea was the prize in the box

Repeat for 4x

And it was cool

Chorus


Thanks to all the SMP fans this is for you