Simple Minded - I Hope My Life Will Tell Chords & Tabs

 

I Hope My Life Will Tell Chords & Tabs

Simple Minded Chords & Tabs

Version: 1 Type: Bass Tab 0 ratings
1 star 2 stars 3 stars 4 stars 5 stars
comments

I Hope My Life Will Tell Bass Tab

Song: I hope my life will tell
Artist: Simple Minded
Tabbed by: Cameron
E-mail: bassplayer4him@juno.com

Hey this song has a cool chord progression. I would say it’s
a pretty easy song, basically the same thing the whole time.
It has a little bridge thing that sounds rad. Anyway, I
gaurentee it’s 100% right. Believe me. If anyone, I would
know. So here it is:

Cool little bass intro x2
G|--------------------------------
D|--------2--2-2-------------2----
A|-4--4-4--------0--0-0--------2--
E|-----------------------0-0------
[ Tab from: http://www.guitartabs.cc/tabs/s/simple_minded/i_hope_my_life_will_tell_btab.html ]
listen for the feedback... play it fast, about 8 notes,
evenly after doin the intro twice. Listen for it to mellow
out. play the intro through the verse. pick it up again in
the chorus, but there is a little variation at te end of the
chorus:
G|--------------------
D|-----2*-------------
A|-4*-----0*-0*-2*-2*-
E|--------------------

*the little star means u play the note 8 times. here’s the
little cool bridge thing without words.
bridge
G|-------------------------
D|-------------------------
A|-4----7--4----7--4----7--
E|---4-------4-----------7-

And the last thing u have do is end the song on a G#. so
that’s the song, a little complicated to explain, but play
with the song and it’s pretty simple. cool

Comments