Simone White - Bunny In A Bunny Suit Chords & Tabs

 

Bunny In A Bunny Suit Chords & Tabs

Simone White Chords & Tabs

Version: 1 Type: Tab 0 ratings
1 star 2 stars 3 stars 4 stars 5 stars
comments

Bunny In A Bunny Suit Tab

   
BUNNY IN A BUNNY SUIT
CAPO on 7
Tab by Sonam Ubhi

VERSE 1
         C        Am            E7
e|-----------------0--------|----------------------|
B|--------0h1---------------|------3-3-3-----------|
G|--------0-------2---------|-----1------1---------|
D|--------------------------|--------------0-------|
A|------3--------0----------|---2------------------|
E|--------------------------|----------------------|

         C        Am            E7
                                     pretending to be my-
e|-----------------0--------|--------------------------------|
B|--------0h1---------------|------3---3-------3-------------|
G|--------0-------2---------|-----1---------------1----------|
D|--------------------------|--------------------------0-----|
A|------3--------0----------|---2----------------------------|
E|--------------------------|--------------------------------|


         C        Am            E7
       self again                    acting as if i was
e|-----------------0--------|---------------------------------|
B|--------0h1---------------|------3------3----3--------------|
G|--------0-------2---------|-----1---------------1-----------|
D|--------------------------|-----------------------0---------|
A|------3--------0----------|---2-----------------------------|
E|--------------------------|---------------------------------|

          C        Am            E7
        who I    am                  wearing the clothes that
e|-----------------0------|------------------------------------|
B|--------0h1-------------|------3----3--3---------------------|
G|--------0-------2-------|-----1--------------1---------------|
D|------------------------|---------------------------0--------|
A|------3--------0--------|-2----------------------------------|
E|------------------------|------------------------------------|
[ Tab from: http://www.guitartabs.cc/tabs/s/simone_white/bunny_in_a_bunny_suit_tab.html ]
          C             N/A             C
       I always wear                            Doing the usual
e|--------------0-----------1----|---------0--------------------|
B|----------------1------------0-|------------------------------|
G|--------0---------------2------|------0-----------------------|
D|-------------------------------|------------------------------|
A|------3---------------0--------|---3--------------------------|
E|-------------------------------|------------------------------|
    CHORUS: 1    
             C             N/A             C
       thing to my hair                       Bunny in a bunny
e|--------------0-----------1----|---------0--------------------|
B|----------------1------------0-|------------------------------|
G|--------0---------------2------|------0-----------------------|
D|-------------------------------|------------------------------|
A|------3---------------0--------|---3--------------------------|
E|-------------------------------|------------------------------|

       Fm6                      Fm6
      suit..                              tiger in a 
e|---------------------------|---------------------------------|
B|-----3----3----3----3------|---3----3----3-------3-----------|
G|-----1----1----1----1------|---1----1----1-------1-----------|
D|------3----3----3----3-----|----3----3----3-------3----------|
A|---------------------------|---------------------------------|
E|---------------------------|---------------------------------|
        C                       C
      tiger mask                      who in the world do you
e|-----------------------|---------------------------------|
B|-------1---------1-----|------1------------1-------------|
G|-----0--0------0--0----|-----0-0---------0--0------------|
D|-----------------------|----3----3-----------------------|
A|---3---------3---------|---------------3-----------------|
E|-----------------------|---------------------------------|

       Fm6                      Fm6
     think that I am                    I suppose it depends on 
e|---------------------------|---------------------------------|
B|-----3----3----3----3------|---3----3----3-------3-----------|
G|-----1----1----1----1------|---1----1----1-------1-----------|
D|------3----3----3----3-----|----3----3----3-------3----------|
A|---------------------------|---------------------------------|
E|---------------------------|---------------------------------|

        C                       C
      who you ask                     
e|----------0-----------|-------------------------------|
B|-------1--------------|------1------------------------|
G|-----0----------------|-----0-0-----------------------|
D|----------------------|----3----3---------------------|
A|---3------------------|-------------------------------|
E|----------------------|-------------------------------|

VERSE: SAME AS VERSE 1
Of all the disguises I've ever worn
I flatter myself in the most sincere form
Still I'm kept at a distance by friends        
For just pretending to be myself again 

CHORUS 2: SAME AS CHORUS

bunny in a bunny suit
Vampire with plastic teeth
Who in the world do I think that I am
I guess it depends on who I believe

NOTE: before chorus 1 return to start to play VERSE 2:

Pretending to be myself again 
Imitating the person I've alwmays been
Legally changing my name to my name
And making believe I'm exactly the same
Comments