Simon Says - Lifejacket Chords & Tabs

 

Lifejacket Chords & Tabs

Simon Says Chords & Tabs

Version: 2 Type: Tab 0 ratings
1 star 2 stars 3 stars 4 stars 5 stars
comments

Lifejacket Tab

Life Jacket, Simonsays
Droped D on the sixth string
Comments? marosvariandrew_intl@msn.com

Intro
-------------------------------------------
-------10-10-10----------------10-10-------
----------------10-10-10-------------10-10-
-8-8-8-------------------8-8-8-------------
-------------------------------------------
-------------------------------------------


Chorus
---------------------------------------------------------------
---------------------------------------------------------------
-------------------------14\\\---------------------------------
-8-8-8-8-8-8-8-8-8-8-8-8-------1-1-1-1-1-1-1-1-1-1-1-1-1-1-1-1-
-8-8-8-8-8-8-8-8-8-8-8-8-12\\\-1-1-1-1-1-1-1-1-1-1-1-1-1-1-1-1-
-8-8-8-8-8-8-8-8-8-8-8-8-------1-1-1-1-1-1-1-1-1-1-1-1-1-1-1-1-


Verse
-------------------------------------------
-------10-10-10----------------10-10-------
----------------10-10-10-------------10-10-
-8-8-8-------------------8-8-8-------------
-------------------------------------------
-------------------------------------------

-------------------------------------------
-------10-10-10----------------10-10-11-11-
----------------10-10-10-------------------
-8-8-8-------------------8-8-8-------------
-------------------------------------------
-------------------------------------------
[ Tab from: http://www.guitartabs.cc/tabs/s/simon_says/lifejacket_tab_ver_2.html ]
-10-10-10-9-9-9----------10-10-10-9-9-------
----------------10-10-10--------------10-10-
--------------------------------------------
--------------------------------------------
--------------------------------------------
--------------------------------------------

-10-9----10-9----10-9----10-9----
------10------10------10------10-
---------------------------------
---------------------------------
---------------------------------
---------------------------------


Verse 2
-----------------------------------------------------------------
-----------------------------------------------------------------
-----------------------------------------------------------------
-8---x-x-8---x-x-8---x-x-8---x-x-1---x-x-1---x-x-1---x-x-1---x-x-
-8---x-x-8---x-x-8---x-x-8---x-x-1---x-x-1---x-x-1---x-x-1---x-x-
-8---x-x-8---x-x-8---x-x-8---x-x-1---x-x-1---x-x-1---x-x-1---x-x-


Mid
-------------------------------------------------------------
-------------------------------------------------------------
-5-5-5-5-5-7-3---3-3-3-3-3-3-3-5-5-5-5-5-7-8---8-8-8-8-8-8-8-
-3-3-3-3-3-5-1---1-1-1-1-1-1-1-3-3-3-3-3-5-6---6-6-6-6-6-6-6-
-3-3-3-3-3-5-1---1-1-1-1-1-1-1-3-3-3-3-3-5-6---6-6-6-6-6-6-6-
-------------------------------------------------------------


Bridge
-----------
---10---10-
---10---10-
-8----8----
-----------
-----------
Comments