Simon Says - Life Jacket Chords & Tabs

 

Life Jacket Chords & Tabs

Simon Says Chords & Tabs

Version: 2 Type: Tab 0 ratings
1 star 2 stars 3 stars 4 stars 5 stars
comments

Life Jacket Tab

   
Simon Says
Life Jacket
Off of the Album Jump Start
Tabbed by Jason Searle
email: jasonsensation_@hotmail.com

Tuning Drop D and Down a Half Step (C#,G#,C#,F#,A#,D#)


Intro/Verse
-----------
e|---------------------------------------------------
B|---------------------------------------------------
G|----------16-16-16--------------------16-16--------
D|-------------------16-16-16-----------------16-16--
A|-14-14-14--------------------14-14-14--------------
D|---------------------------------------------------

e|--------------------------------------------14-14--
B|---------------------------------------------------
G|----------16-16-16--------------------16-16--------
D|-------------------16-16-16------------------------
A|-14-14-14--------------------14-14-14--------------
D|---------------------------------------------------

Chorus
------
  B            F#       E
e|--------------------------------------------------
B|--------------------------------------------------
G|------------x-11-11-11-----------------------------
D|-\9-9-99-99-x--x--x--x-2-2-22-22-2222--------------
A|-\9-9-99-99-x--9--9--9-2-2-22-22-2222--------------
D|-\9-9-99-99-x----------2-2-22-22-2222--------------
[ Tab from: http://www.guitartabs.cc/tabs/s/simon_says/life_jacket_tab_ver_2.html ]
Occaisionaly the second guitar plays the into/verse 
part over the first guitar playing the chorus.

End of Chorus (2nd and 3rd times only)
--------------------------------------

e|---------------------------------------------------------
B|---------------------------------------------------------
G|---------------------------------------------------------
D|-9-99-9-12-2-2-22-2--9-99-9-12--14-14-1414-14\-----------
A|-9-99-9-12-2-2-22-2--9-99-9-12--14-14-1414-14\-----------
D|-9-99-9-12-2-2-22-2--9-99-9-12--14-14-1414-14\-----------

Bridge
------

e|--------------------------------------------------
B|--------------------------------------------------
G|-----14-----14--14-14-----------------------------
D|-----14-----14--14-14-----------------------------
A|--12-----12---------------------------------------
D|--------------------------------------------------

Guitar Fill Right Before Chorus
-------------------------------

e|---14p12p11h14p12p11h14p12h14p12------------------
B|--------------------------------------------------
G|--------------------------------------------------
D|--------------------------------------------------
A|--------------------------------------------------
D|--------------------------------------------------

Thats it, easy song that i just rediscovered on morpheus and decided 
to tab it out... hope you guys enjoy it

the jason sensation
Comments