Simon Says - Hey You Chords & Tabs

 

Hey You Chords & Tabs

Simon Says Chords & Tabs

Version: 1 Type: Tab 0 ratings
1 star 2 stars 3 stars 4 stars 5 stars
comments

Hey You Tab

   
Simon Say's Hey You
done by:Chaz Sauls
1:24pm 3/7/2002

INTRO:

C#|-------------------------------------------------------------|
G#|-------------------------------------------------------------|
E |-------------------------------------------------------------|
B |-0-9-8-0-9-0-0-9-8-0-9-0-0-9-8-0-9-0-0-9-8-0-9-0-11-11-11-11-|
F#|-------------------------------------------------------------|
B |-------------------------------------------------------------|

HEAVY PART:

C#|-------------------------------------------------------------|
G#|-------------------------------------------------------------|
E |-------------------------------------------------------------|
B |-------------------------------------------------------------|
F#|-------------------------------------------------------------|
B |-0-9-8-0-9-0-0-9-8-0-9-0-0-9-8-0-9-0-0-9-8-0-9-0-11-11-11-11-|

CHORUS:
[ Tab from: http://www.guitartabs.cc/tabs/s/simon_says/hey_you_tab.html ]
C#|----------------------|----------------------|
G#|----------------------|----------------------|
E |----------------------|-12-------------------|
B |-12-0-0-0-12-12-10-10-|--X--0----12-12-10-10-|
F#|-12-0-0-0-10-10--8--8-|-10--0----10-10--8--8-|
B |-12-0-0-0-10-10--8--8-|-----0----10-10--8--8-|

							light P.M...^

BREAKDOWN:

C#|-----------------------------------------------------------|
G#|-----------------------------------------------------------|
E |-----------------------------------------------------------|
B |-0-9-8-0-9-0-0-9-8-0-9-0-0-9-8-0-9-0-0-9-8-0-9-0-11-11-0-0-| 
F#|-----------------------------------------------------------|
B |-----------------------------------------------------------|
BRIDGE:

C#|-------------------------|
G#|-------------------------|
E |-------------------------|
B |-12p0-0-0-12-12-12p0-0-0-|
F#|-12p0-0-0-12-12-12p0-0-0-|
B |-12p0-0-0-12-12-12p0-0-0-|

OUTRO CHORUS:

C#|----------------------|
G#|----------------------|
E |----------------------|
B |-12-0-0-0-12-12-10-10-|
F#|-12-0-0-0-10-10--8--8-|
B |-12-0-0-0-10-10--8--8-|

P.M......................^
Comments