Simon Mcmillan - Bird Blues Chords & Tabs

 

Bird Blues Chords & Tabs

Simon Mcmillan Chords & Tabs

Version: 1 Type: Bass Tab 0 ratings
1 star 2 stars 3 stars 4 stars 5 stars
comments

Bird Blues Bass Tab

|-----------------------------------------------------|x2
|------------------2-2--------------------------------|
|----------2-2-4-4-----4-4-2-2------------------------|
|--0-0-3-3---------------------3-3--------------------|

|------------------2-2--------------------------------|x1
|----------2-2-4-4-----4-4-2-2------------------------|
|--0-0-3-3---------------------3-3--------------------|
|-----------------------------------------------------|
[ Tab from: http://www.guitartabs.cc/tabs/s/simon_mcmillan/bird_blues_btab.html ]
|-----------------------------------------------------|x1
|------------------2-2--------------------------------|
|----------2-2-4-4-----4-4-2-2------------------------|
|--0-0-3-3---------------------3-3--------------------|

|---------------------2-------------------------------|x1
|-----44-66/4-----2-4---4-2-----------2---------------|
|--22---------0-3-----------3-----2-4---4-2-----------|
|-----------------------------0-3-----------33-0------|

Do this and make small varyations to keep it interesting
Comments