Simon Garfunkel - 59th St Bridge Song Chords & Tabs

 

59th St Bridge Song Chords & Tabs

Simon Garfunkel Chords & Tabs

Version: 1 Type: Tab

59th St Bridge Song Tab

Artist: Simon & Garfunkel
Title: The 59th Street Bridge Song (Feelin' Groovy)
Instrument: Acoustic steel string guitar, finger plucked
Tuning: Standard (EADGBe), Capo on 3

I don't know if this is how it's really SUPPOSED to be played, but it sounds
99% accurate. It's played with a swing beat and with a capo on 3.

Key:
/ upslide
\ downslide

Intro:
[ Tab from: http://www.guitartabs.cc/tabs/s/simon_garfunkel/59th_st_bridge_song_tab.html ]
e|-----0------------|------------------|-----0------------|------------------|
B|---------3--------|-1-----0----------|---------3--------|-1-----0---0------|
G|-----------0------|---0-------0---0--|---0---0---0---0--|---0-----------0--|
D|-------------0----|-----0-------0----|-------------0----|-----0------------|
A|-----3---2--------|-0----------------|-3---3---2--------|-0----------------|
E|------------------|-------3\0--------|------------------|-------3\0-3\0----|

e|-----0------------|------------------|-----0------------|-------7----------|
B|---------3--------|-1-----0----------|---------3--------|-1---1-3-------8\-|
G|---0---0---0---0--|---0-------0---0--|---0---0---0---0--|---0--------------|
D|-------------0----|-----0-------0----|-------------0----|------------------|
A|-3---3---2--------|-0----------------|-3---3---2--------|-0----------------|
E|------------------|-------3\0--------|------------------|------------------|

e|------------------|------------------|
B|-3----------------|------------------|
G|------------------|------------------|
D|------------------|------------------|
A|------------------|------------------|
E|---------------0--|-0/2-2/3-3/5-5/7--|


...Followed by small variations. Happy playing!