Simon And Garfunkel - Sound Of Silence Chords & Tabs

 

Sound Of Silence Chords & Tabs

Simon And Garfunkel Chords & Tabs

Version: 2 Type: Tab 1 rating
1 star 2 stars 3 stars 4 stars 5 stars
comments

Sound Of Silence Tab

-------------------------------PLEASE NOTE-----------------------------------#
#This file is the author's own work and represents their interpretation of the#
#song. You may only use this file for private study, scholarship, or research.#
#-----------------------------------------------------------------------------#


SOUND OF SILENCE
Simon & Garfunkel

tabbed by: Davor Stojanovski



The intro is played by two guitars:

Guitart I (electric)
e-------------------------------6-----6-------6-----6-------||
B----------------------------------6-------------6----------||
G----------------------------8-------------8----------------||
D-----------------------------------------------------------||
A-----------------------------------------------------------||
E-----------------------------------------------------------||
Guitart II (acoustic)                                       ||
  (capo 6th fret)                                           ||
e----0-----0------0-----0-------0-----0-------0-----0-------||
B-------0------------0-------------0-------------0----------||
G--2-----------2-------------2-------------2----------------||
D-----------------------------------------------------------||
A-----------------------------------------------------------||
E-----------------------------------------------------------||
                          


Guitart I
e-----4-----4-------4-----4-------4------4-------4-----4----||
B--------4-------6-----4--------------4-------6-----4-------||
G--6---------------------------6----------------------------||
D-----------------------------------------------------------||
A-----------------------------------------------------------||
E-----------------------------------------------------------||
Guitar II                                                   ||
e-----3-----3-------3-----3-------3------3-------3----------||
B------------------------------------------------------0----||
G--------0-------------0--------------0-------------0-------||
D-----------------------------------------------------------||
A-----------------------------------------------------------||
E--3-------------3-------------3--------------3-------------||
 


Guitart I
e-----6-----6------6-----6-------6------6-------6-----6-----||
B--------6------7-----6-------------6--------7-----6--------||
G--8-------------------------8------------------------------||
D-----------------------------------------------------------||
A-----------------------------------------------------------||
E-----------------------------------------------------------||
Guitar II                                                   ||
e-----0------------0-------------0--------------0-----------||
B-----------1------------1--------------1-------------1-----||
G--------2------------2-------------0--------------0--------||
D---------------2------------2---------------2--------------||
A--0--------------------------------------------------------||
E-----------------------------------------------------------||
 


Guitart I
e-----7-----7------6-----6----7--6-----6-------6-----6------||
B--------7------------7-------------7-------------7---------||
G--8------------6---------------------------6---------------||
D-----------------------------------------------------------||
A-----------------------------------------------------------||
E-----------------------------------------------------------||
Guitar II                                                   ||
e-----1------------0-------------0-------------0------------||
B-----------0------------1-------------1-------------1------||
G--------2------------0-------------0-------------0---------||
D--3--------------------------------------------------------||
A---------------3-------------3-------------3---------------||
E-----------------------------------------------------------||


[ Tab from: http://www.guitartabs.cc/tabs/s/simon_and_garfunkel/sound_of_silence_tab_ver_2.html ]
Guitart I
e-----7-----7-----6-----6---7--6-----6------7------7--------||
B--------7-----------7------------7-------------7-----------||
G--8-----------6-------------------------8------------------||
D-----------------------------------------------------------||
A-----------------------------------------------------------||
E-----------------------------------------------------------||
Guitar II                                                   ||
e-----1-----------0------------0------------1---------------||
B-----------0-----------1------------1-------------1--------||
G--------2-----------0------------0-------------2-----------||
D-----------------------------------------------------------||
A--------------3------------3-------------------------------||
E--1-------------------------------------1------------------||
  


Guitart I
e-----7------------7-----7------7--------------2--------2---||
B-----------7---------7----------------7------------2-------||
G--9-----8------8------------9-----8--------4---------------||
D-----------------------------------------------------------||
A-----------------------------------------------------------||
E-----------------------------------------------------------||
Guitar II                                                   ||
e-----1------------1------------1--------------0------------||
B-----------1------------1-------------1----------------1---||
G--------2------------2------------2----------------0-------||
D-----------------------------------------------------------||
A-------------------------------------------3---------------||
E--1------------1------------1------------------------------||
     

Guitart I
e------2-----2-------2------2------2-----2-----2-------2----||
B---------2-------------2-------------2------------2--------||
G--4-------------4--------------4-----------4---------------||
D-----------------------------------------------------------||
A-----------------------------------------------------------||
E-----------------------------------------------------------||
Guitar II                                                   ||
e------0-------------0-------------0-----0------------------||
B-----------------------1-------------1------------1---0----||
G----------------------------------2-----------0------------||
D---------3--2----------------------------------------------||
A--3-------------3----------2---0-----------3---------------||
E-----------------------------------------------------------||
    


Guitart I
e------4-----4-------4------4--------6-----6-------6-----6--||-----------6--|
B---------5------4-------5--------------6-------7-----6-----||---------7----|
G--6------------------------------8-------------------------||-------8------|
D-----------------------------------------------------------||-----8--------|
A-----------------------------------------------------------||---6----------|
E-----------------------------------------------------------||-6------------|
Guitar II                                                   ||
e------3-------------3---------------0-----0-------0-----0--||-----------0--|
B------------0--------------0-----------0-------------0-----||---------1----|
G---------0--------------0--------2-------------2-----------||-------2------|
D-----------------------------------------------------------||-----2--------|
A--2--------------------------------------------------------||---0----------|
E----------------3------------------------------------------||--------------|
   


I think that this intro is 98% correct, and I must say that
it was very tough tabbing it down.

Everything else is strummed chords only, and some little riffs 
which I hope I'll send few months after. 

Have a nice time.





The song ends with the electric guitar:

e---------------------------6--|
B--6---7---6---7-----------7---|
G----8---8---8---8-------8-----|
D----------------------8-------|
A--------------------6---------|
E------------------6-----------|  strum the chord, as in the end of the intro.


davor_mk2001@yahoo.com
stojanovskid@mt.net.mk
Comments