Simon And Garfunkel - Scarborough Fair Chords & Tabs

 

Scarborough Fair Chords & Tabs

Simon And Garfunkel Chords & Tabs

Version: 4 Type: Tab 0 ratings
1 star 2 stars 3 stars 4 stars 5 stars
comments

Scarborough Fair Tab

Scarborough Fair - Simon & Garfunkel
Transcribed by: Eric Beckman (skalpadda@lycos.com)


Capo on 7th fret.


Intro:
 |  .  |  .  |  .   |  .  |  .  |  .   |  .  |  .  |  .     
|---0--------------|---0--------------|-------------------|
|------------3-----|------------3-----|---0---------------|
|------0--------0--|------0--------0--|------0------------|
|---------4--------|---------4--------|-------------------|
|0-----------------|5-----------------|3-----------2------|
|------------------|------------------|-------------------|


Vers:
  |  .  |  .  |  .   |  .  |  .  |  .    |  .  |  .  |  .   
||---0--------------|---0--------------||-------------------|
||------------3-----|------------0-----||0--------1--0------|
||*-----0--------0--|------2--------2-*||---0---------------|
||*--------4--------|---------2-------*||------0--2--0------|
||0-----------------|0-----------------||-------------------|
||------------------|------------------||3------------------|


 |  .  |  .  |  .   |  .  |  .  |  .   |  .  |  .  |  .   |  .  |  .  |  .  
|---0--------------|---0--------------|---0--------------|---0---------------|
|------------3-----|------------0-----|------------1-----|------------0------|
|------0--------0--|------2--------2--|------0--------0--|------2--------2---|
|---------4--------|---------2--------|---------2--------|---------2---------|
|0-----------------|0-----------------|3-----------------|0------------------|
|------------------|------------------|------------------|-------------------|

[ Tab from: http://www.guitartabs.cc/tabs/s/simon_and_garfunkel/scarborough_fair_tab_ver_4.html ]
 |  .  |  .  |  .    |  .  |  .  |  .   |  .  |  .  |  .    |  .  |  .  |  .  
|0-----2-----------||---0--------------|---0--------------||---0---------------|
|------------3-----||------------3-----|------------0-----||-------------------|
|---0-----2-----2--||*-----0--------0--|------2--------2-*||------2------------|
|------0-----0-----||*--------4--------|---------2-------*||---------2---------|
|3-----------------||0-----------------|0-----------------||0-----------0--2---|
|------------------||------------------|------------------||-------------------|


 |  .  |  .  |  .   |  .  |  .  |  .   |  .  |  .  |  .   |  .  |  .  |  .  
|---0--------------|0-----------------|------------------|-------------------|
|------------1-----|------3-----1-----|0-----------1-^0--|1-----0------------|
|------0--------0--|---0-----0-----0--|---0-----0--------|-----------(0)-----|
|---------2--------|------------------|------0-----2-^0--|2-----0------------|
|3-----------------|3-----2-----0-----|------------------|-------------------|
|------------------|------------------|3-----------------|------------3------|


 |  .  |  .  |  .   |  .  |  .  |  .   |  .  |  .  |  .   
|---0--------0-----|------------------|------------------||
|---------------1--|0-----------1-----|0-----0^1^0-------||
|------2-----------|---0-----0--------|------------0-----||
|---------2--------|------0-----2-----|0-----0^2^0-------||
|0-----------------|------------------|------------2-----||
|------------------|3-----------------|------------------||

End with intro.
Comments