Simon And Garfunkel - Scarborough Fair Chords & Tabs

 

Scarborough Fair Chords & Tabs

Simon And Garfunkel Chords & Tabs

Version: 3 Type: Tab 0 ratings
1 star 2 stars 3 stars 4 stars 5 stars
comments

Scarborough Fair Tab

   
carborough Fair 
by Simon and Garfunkel
tabbed by John Curington

I hope there are improvements in this version. 
Many thanks to the great work by others that came before this.
To match the Simon and Garfunkel album, play with capo on 7th fret.


INTRO: in 3/4 time

---0---------|---0----------|---0----------
---------3---|---------3----|-----0--------
-----0-----0-|-----0-----0--|--------------
-------4-----|-------4------|--------------
-0-----------|-5------------|-3--------2---
-------------|--------------|--------------



---0---------|---0----------|---0---------|---0----------|
---------3---|---------0----|---------3---|---------0----|
-----0-----0-|-----2-----2--|-----0-----0-|-----2-----2--|
-------4-----|-------2------|-------4-----|-------2------|
-0-----------|-0------------|-0-----------|-0------------|
-------------|--------------|-------------|--------------|


VERSE:
 Am7sus4       Am(add9)       G   C/G
---0---------|---0----------|--------------
---------3---|---------0----|-0---1---0----
-----0-----0-|-----2-----2--|---0---0---0--
-------4-----|-------2------|--------------
-0-----------|-0------------|-----2---0----
-------------|--------------|-3------------




 Am7sus4       Am(add9)       C    
---0---------|---0----------|---0-----0-----
---------3---|---------0----|-----1-----0---
-----0-----0-|-----2-----2--|-------0-------
-------4-----|-------2------|---------------
-0-----------|-0------------|-3-------------
-------------|--------------|---------------




 Am            C   D          Am7sus4    
---0---------|---0---2------|---0-----------
-----1-------|---------3----|---------3-----
-------2-----|-----------2--|-----0-----0---
-------------|-----0--------|-------4-------
-0-------0-2-|-3------------|-0-------------
-------------|--------------|---------------



[ Tab from: http://www.guitartabs.cc/tabs/s/simon_and_garfunkel/scarborough_fair_tab_ver_3.html ]
 Am(add9)       Am7sus4       Am(add9)
---0----------|---0---------|---0-----------
---------0----|---------3---|---------0-----
-----2-----2--|-----0-----0-|-----2-----2---
-------2------|-------4-----|-------2-------
-0------------|-0-------0---|-0-------------
--------------|-------------|---------------
                            



Am            C               C (walk down)    
-------0-----|-------0------|-0------------
---1---------|---1-----1----|-----3---1----
-----2-------|-----0-----0--|---0---0---0--
-------------|--------------|--------------
-0-------0-2-|-3------------|-3---2---0----
-------------|--------------|--------------




 G         C   G C            Am7sus4    
-------------|--------------|---0-----------
-0---------1p|-1-0----------|---------3-----
---0---0-----|--------------|-----0-----0---
-----0-----2p|-2-0----------|-------4-------
-------------|--------------|-0-------------
-3-----------|--------------|---------------




 Am(add9)      G   Am  G      Am7sus4    
---0---------|-3------------|---0----------
---------0---|-----1---0----|---------3----
-----2-----2-|---0---0---0--|-----0-----0--
-------2-----|-----2---0----|--------------
-0-----------|--------------|-0-----4------
-------------|-3------------|--------------
 


Am(add9)       Am7sus4       Am(add9)
---0---------|---0---------|---0----------
---------0---|---------3---|---------0-----
-----2-----2-|-----0-----0-|-----2-----2---
-------2-----|-------4-----|-------2-------
-0-----------|-0-----------|-0-------------
-------------|-------------|---------------







OUTRO:

Am7sus4
---0---------|---0----------|---0----------|---------
---------3---|---------3----|-----0--------|--------
-----0-----0-|-----0-----0--|--------------|--------
-------4-----|-------4------|--------------|--------
-0-----------|-5------------|-3-----2------|-0------
-------------|--------------|--------------|--------
Comments