Simon And Garfunkel - Scarborough Fair Chords & Tabs

 

Scarborough Fair Chords & Tabs

Simon And Garfunkel Chords & Tabs

Version: 1 Type: Tab 0 ratings
1 star 2 stars 3 stars 4 stars 5 stars
comments

Scarborough Fair Tab

SCARBOROUGH FAIR

INTRO:

----0------------|-----0-----------------|----0-----------
------------3----|-----------------3-----|-------0--------
-------0------0--|-----------0--------0--|----------------
---------4-------|--------------4--------|----------------
--0--------------|--5--------------------|--3----------2--
-----------------|-----------------------|----------------

INTERLUDE:

----0------------|-----0-------------------
------------3----|-----------------0-------
-------0------0--|-----------2--------2----
---------4-------|--------------2----------
--0--------------|--0----------------------
-----------------|-------------------------

VERSE:

----0------------|-----0-----------------|------------------
------------3----|-----------------0-----|--0----1----3-----
-------0------0--|-----------2--------2--|----0----0-----0--
---------4-------|--------------2--------|------------------
--0--------------|--0--------------------|-------0----2-----
-----------------|-----------------------|--3---------------

----0------------|-----0-------------------
------------3----|-----------------0-------
-------0------0--|-----------2--------2----
---------4-------|--------------2----------
--0--------------|--0----------------------
-----------------|-------------------------

--------------0-----|--------------0-----|--0----2----------
-----------1-----1--|-----------1-----1--|------------3-----
--------0-----------|--------2-----------|----0----2-----2--
-----2--------------|-----2--------------|-------0----0-----
--3-----------------|--0-----------------|--3---------------
--------------------|--------------------|------------------
[ Tab from: http://www.guitartabs.cc/tabs/s/simon_and_garfunkel/scarborough_fair_tab.html ]
----0------------|-----0-------------------
------------3----|-----------------0-------
-------0------0--|-----------2--------2----
---------4-------|--------------2----------
--0--------------|--0----------------------
-----------------|-------------------------

----0--------------|--------------0-----|--0--------------
-------1-----------|-----------1-----1--|-------3----1----
----------2--------|--------0-----------|----0----0----0--
-------------------|-----2--------------|-----------------
--0----------0--2--|--3-----------------|--3----2----0----
-------------------|--------------------|-----------------

---------------------|------------------
--0---------0--1--0--|--0--1----0-------
-------0-------------|---------------0--
------------0--2--0--|--0--2----0-------
---------------------|------------------
--3------------------|---------------3--

---------------0-----|-----------------|------------------
------------1-----1--|--3-----------1--|--0----1----3-----
---------2-----------|----0------------|----0----0-----0--
------2--------------|---------0-------|------------------
---0-----------------|-----------------|-------0----2-----
---------------------|--3--------------|--3---------------

----0------------|-----0-------------------
------------3----|-----------------0-------
-------0------0--|-----------2--------2----
---------4-------|--------------2----------
--0--------------|--0----------------------
-----------------|-------------------------

OUTRO:

----0------------|-----0-----------------|----0-----------
------------3----|-----------------3-----|-------0--------
-------0------0--|-----------0--------0--|----------------
---------4-------|--------------4--------|----------------
--0--------------|--5--------------------|--3----------2--
Comments