Simon And Garfunkel - Rene And Georgette Magritte Chords & Tabs

 

Rene And Georgette Magritte Chords & Tabs

Simon And Garfunkel Chords & Tabs

Version: 1 Type: Tab 0 ratings
1 star 2 stars 3 stars 4 stars 5 stars
comments

Rene And Georgette Magritte Tab

#----------------------------------PLEASE NOTE---------------------------------#
#This file is the author's own work and represents their interpretation of the #
#song. You may only use this file for private study, scholarship, or research. #
#------------------------------------------------------------------------------##
From: "Kean,John" 

There are bits of this that I *know* aren't right (eg 11th bar from the 
end), but this is the best I can come up with!
Let me know if you have any improvements.
John K.


Rene and Georgette Magritte With Their Dog After the War  - Paul Simon
~~~~~~~~~~~~~~~~~~~~~~~~~~~~~~~~~~~~~~~~~~~~~~~~~~~~~~~~
>From "Hearts and Bones".
Transcribed and tabbed by John Kean (keanj@agresearch.cri.nz).
Thanks to Jared White for help with the 4/4 bar.
Note: this is not exactly what Paul plays, but it sounds not too bad.

Lyrics are not exactly lined up with where they are to be sung.

6/8 time (mostly).

6/8 ,  .  .  ,  .  .    ,  .  .  ,  .  .    , . . , . .   , . . , . .
||--------------------|-------------------|-------------|-------------|
||--------------------|-------------------|-------------|-------------|
||--------------------|-------------------|-------------|-------------|
||--2--------0--------|-------------------|-------2-----|-------2-----|
||--------------------|-2--------0--------|-------------|-------------|
||--------------------|-------------------|-0-----------|-0-----------|
  

  ,  .  .  ,  .  .    ,  .  .  ,  .  .    , . . , . .    , . . , . .
|-------------------|-------------------|--------------|--------------|
|-------------------|-------------------|-------2------|-------2------|
|-------------------|-------------------|-----2---2----|-----2---2----|
|-2--------1--------|-0-----------------|-----------2--|---2-------2--|
|-------------------|----------2--------|-0------------|-0------------|
|-------------------|-------------------|--------------|--------------|
 

  ,  .  .  ,  .  .    ,  .  .  ,  .  .    ,  .  .  ,  .  .
|-------------------|-------------------|-------------------|
|----------2--------|----------2--------|----------2--------|
|-------2-----2-----|-------4-----4-----|-------2-----2-----|
|----4-----------4--|----2-----------2--|----2-----------2--|
|-------------------|-------------------|-0-----------------|
|-2-----------------|-4-----------------|-------------------|
  

  ,  .  .  ,  .  . 4/4 ,   .   ,   .   ,   .   ,   .  6/8
|-------------------|----------------------------------|
|----------4--------|--4h5p4-----------4---------------|
|-------4-----4-----|--4-----------4-----------4-------|
|----4-----------4--|--4h6p4---7-----------6-------4---|
|-0-----------------|----------------------------------|
|-------------------|----------------------------------|
  

6/8  .  .  ,  .  .    ,  .  .  ,  .  .    ,  .  .  ,  .  .
|-------------------|-------------------|-------------------|
|----------0--------|----------0--------|----------0--------|
|-------1-----------|-------1-----1-----|-------2-----2-----|
|----2--------2--1--|----2--------------|----2-----------2--|
|-------------------|-4--------------2--|-0-----------------|
|-0-----------------|-------------------|-------------------|
 

  ,  .  .  ,  .  .    ,  .  .  ,  .  .    ,  .  .  ,  .  .
|-------------------|-------------------|-------------------|
|----------0--------|-------0--------0--|-------0--------0--|
|-------2-----2-----|----1--------1-----|----1--------1-----|
|----1-----------1--|----------1--------|-------------------|
|-2-----------------|-------------------|-4--------2--------|
|-------------------|-0-----------------|-------------------|


  ,  .  .  ,  .  .    ,  .  .  ,  .  .    ,  .  .  ,  .  .
|-------------------|-------------------|-------------------|
|----------2--------|----------2--------|----------2--------|
|-------2-----2-----|-------2-----2-----|-------2-----2-----|
|----2-----------2--|----2-----------2--|----4-----------4--|
|-0-----------------|-0-----------------|-------------------|
|-------------------|-------------------|-2-----------------|
  

  ,  .  .  ,  .  .    ,  .  .  ,  .  .    ,  .  .  ,  .  .
|-------------------|----------0--------|----------0--------||
|----------4--------|-------0-----0-----|-------0-----0-----||
|-------4-----4-----|----1-----------1--|----1-----------1--||
|----4-----------4--|-------------------|-------------------||
|-2-----------------|-------------------|-------------------||
|-------------------|-0-----------------|-0-----------------||
  

   ,  .  .  ,  .  .    ,  .  .  ,  .  .    , . . , . .   , . . , . .
||-------------------|-------------------|-------7-----|-------------|
||-------------------|-------------------|---------7-9-|-------------|
||-------------------|-------------------|-------------|-9-----------|
||-2--------0--------|-------------------|-------------|-------------|
||-------------------|-2--------0--------|-------7-----|-------7-----|
||-------------------|-------------------|-0-----------|-0-----------|
 

  ,  .  .  ,  .  .    ,  .  .  ,  .  .    , . . , . .    , . . , . .
|-------------------|-------------------|--------------|-5------------|
|-------------------|-------------------|-------2------|---5-2--------|
|-------------------|-------------------|-----2---2----|-------2------|
|-2--------1--------|-0-----------------|---2-------2--|---------2----|
|-------------------|----------2--------|-0------------|-0---------4--|
|-------------------|-------------------|--------------|--------------|


  ,  .  .  ,  .  .    ,  .  .  ,  .  .    ,  .  .  ,  .  .
|-------------------|-------------------|-------------------|
|----------2--------|----------2--------|----------2--------|
|-------2-----2-----|-------4-----4-----|-------2-----2-----|
|----4-----------4--|----2-----------2--|----2-----------2--|
|-------------------|-------------------|-0-----------------|
|-2-----------------|-4-----------------|-------------------|
 

  ,  .  .  ,  .  . 4/4 ,   .   ,   .   ,   .   ,   .  6/8
|-------------------|----------------------------------|
|----------4--------|--4h5p4-----------4---------------|
|-------4-----4-----|--4-----------4-----------4-------|
|----4-----------4--|--4h6p4---7-----------6-------4---|
|-0-----------------|----------------------------------|
|-------------------|----------------------------------|


6/8  .  .  ,  .  .    ,  .  .  ,  .  .    ,  .  .  ,  .  .
|-------------------|-------------------|-------------------|
|----------0--------|-------------0-----|----------0--------|
|-------1-----------|-------1-----------|-------2-----2-----|
|----2--------2--1--|----2-----2--------|----2-----------2--|
|-------------------|-4--------------2--|-0-----------------|
|-0-----------------|-------------------|-------------------|
  

  ,  .  .  ,  .  .    ,  .  .  ,  .  .    ,  .  .  ,  .  .
|-------------------|-------------------|-------------------|
|----------0--------|-------0--------0--|-------0--------0--|
|-------2-----------|----1--------1-----|----1--------1-----|
|----1--------------|----------1--------|-------------------|
|-2-----------0-----|-------------------|-4--------2--------|
|----------------2--|-0-----------------|-------------------|
 
[ Tab from: http://www.guitartabs.cc/tabs/s/simon_and_garfunkel/rene_and_georgette_magritte_tab.html ]
  ,  .  .  ,  .  .    ,  .  .  ,  .  .    ,  .  .  ,  .  .
|-------------------|-------------------|-------------------|
|----------2--------|----------2--------|----------2--------|
|-------2-----2-----|-------2-----2-----|-------2-----2-----|
|----2-----------2--|----2-----------2--|----4-----------4--|
|-0-----------------|-0-----------------|-------------------|
|-------------------|-------------------|-2-----------------|


  ,  .  .  ,  .  .    ,  .  .  ,  .  .    ,  .  .  ,  .  .
|-------------------|----------0--------|-------------------||
|----------4--------|-------0-----0-----|-------------------||
|-------4-----4-----|----1-----------1--|-------------------||
|----4-----------4--|-------------------|-2--------------2--||
|-2-----------------|-------------------|----2--------2-----||
|-------------------|-0-----------------|-------0--0--------||
  

   ,  .  .  ,  .  .    ,  .  .  ,  .  .    ,  .  .  ,  .  .
||-------------------|-------------------|-------------------|
||----------2--------|-------4--------2--|----------2--------|
||-------3-----3-----|----4--------3-----|-------2-----2-----|
||----4-----------4--|-------------------|----2-----------2--|
||-------------------|-2--------1--------|-0-----------------|
||-2-----------------|-------------------|-------------------

  ,  .  .  ,  .  .    ,  .  .  ,  .  .    ,  .  .  ,  .  .
|-------------------|-------------------|-------------------|
|----------5--------|----------2--------|----------5--------|
|-------4-----4-----|-------2-----2-----|-------4-----4-----|
|----6-----------6--|----2-----------2--|----6-----------6--|
|-------------------|-0-----------------|-------------------|
|-4-----------------|-------------------|-4-----------------|
                 

  ,  .  .  ,  .  .    ,  .  .  ,  .  .    ,  .  .  ,  .  .
|----------2--------|----------4--------|-------------------|
|-------2-----2-----|----5--------5-----|----------2--------|
|----2-----------2--|-------6--------6--|-------2-----2-----|
|-4-----------------|-------------------|----2-----------2--|
|-------------------|-4-----------------|-0-----------------|
|-------------------|-------------------|-------------------|
 

  ,  .  .  ,  .  .    ,  .  .  ,  .  .    ,  .  .  ,  .  .
|-------------------|-------------------|----------0--------|
|----------5--------|----------2--------|-------0-----0-----|
|-------4-----4-----|-------2-----2-----|----1-----------1--|
|----6-----------6--|----4-----------4--|-------------------|
|-------------------|-------------------|-------------------|
|-4-----------------|-2-----------------|-0-----------------|
  

  ,  .  .  ,  .  .    ,  .  .  ,  .  .    ,  .  .  ,  .  .
|-------------------|-------------------|-------------------|
|-------2-----------|-4--------2--------|-2-----------------|
|----3--------------|-4--------3--------|-2-----------------|
|-------------------|-4-----------------|-4-----------------|
|----------------1--|-2--------1--------|-0-----------------|
|-2--------2--4-----|-------------------|-------------------|


  ,  .  .  ,  .  .    ,  .  .  ,  .  .
|-------------------|-------------------||
|-------------------|-2-----------------||
|-4-----------------|-2-----------------||
|-6-----------------|-4-----------------||
|-6-----------------|-4-----------------||
|-4-----------------|-2-----------------||
               

   ,  .  .  ,  .  .    ,  .  .  ,  .  .    , . . , . .   , . . , . .
||-------------------|-------------------|-------------|-------------|
||-------------------|-------------------|-------------|-------------|
||-------------------|-------------------|-------------|-------------|
||-2--------0--------|-------------------|-------2-----|-------2-----|
||-------------------|-2--------0--------|-------------|-------------|
||-------------------|-------------------|-0-----------|-0-----------|
 

  ,  .  .  ,  .  .    ,  .  .  ,  .  .    , . . , . .    , . . , . .
|-------------------|-------------------|--------------|--------------|
|-------------------|-------------------|-------2------|-------2------|
|-------------------|-------------------|---------2----|-----2---2----|
|-2--------1--------|-0-----------------|-----------2--|---2-------2--|
|-------------------|----------2--------|-0------------|-0------------|
|-------------------|-------------------|--------------|--------------|
  

  ,  .  .  ,  .  .    ,  .  .  ,  .  .    ,  .  .  ,  .  .
|-------------------|-------------------|-------------------|
|----------2--------|----------2--------|----------2--------|
|-------2-----2-----|-------4-----4-----|-------2-----2-----|
|----4-----------4--|----2-----------2--|----2-----------2--|
|-------------------|-------------------|-0-----------------|
|-2-----------------|-4-----------------|-------------------|
  

  ,   .   .   ,   .   .     ,   .   .   ,   .   .
|-------------------------|-------------0-----------|
|-------------2-----------|---------2---------------|
|---------3-------3-------|-----3-------------------|
|-----2---------------2---|-------------------------|
|-1-----------------------|-1-----------------------|
|-------------------------|-------------------------|


  ,  .  .  ,  .  .    ,  .  .  ,  .  .    ,  .  .  ,  .  .
|-------------------|-2-----------------|-0-----------------|
|-4-----------------|-4-----------------|-0-----------------|
|-4-----------------|-3-----------------|-1-----------------|
|-6-----------------|-1-----------------|-2-----------------|
|-6-----------------|-1-----------------|-2-----------------|
|-4-----------------|-------------------|-0-----------------|
 

  ,  .  .  ,  .  .    ,  .  .  ,  .  .    ,  .  .  ,  .  .
|-------------------|-------------------|-------------------|
|-4-----------------|-------0--------0--|-------0--------0--|
|-4-----------------|----1--------1-----|----1--------1-----|
|-4-----------------|-2--------1--------|-------------------|
|-2-----------------|-------------------|-4--------2--------|
|-------------------|-------------------|-------------------|


  ,  .  .  ,  .  .    ,  .  .  ,  .  .    ,  .  .  ,  .  .
|-------------------|-------------------|-------------------|
|----------2--------|----------2--------|----------2--------|
|-------2-----2-----|-------2-----2-----|-------2-----2-----|
|----2-----------2--|----2-----------2--|----4-----------4--|
|-0-----------------|-------------------|-------------------|
|-------------------|-2-----------------|-2-----------------|
 

  ,  .  .  ,  .  .    ,  .  .  ,  .  .    ,  .  .  ,  .  .
|-------------------|-------------------|----0-----2-----0--|
|-------------------|-------------------|-------2-----4-----|
|-------------------|-------------------|-------------------|
|-------------------|-------------------|-------------------|
|-2-----------------|-------------------|-4-----------------|
|-------------------|-------------------|-------------------|
  

  ,  .  .  ,  .  .    ,  .  .  ,  .  .    ,  .  .  ,  .  .
|----0-----4-----0--|----------0--------|----------0--------|
|-------2-----4-----|----2--------2-----|-------0-----0-----|
|-------------------|-------2--------2--|----1-----------1--|
|-------------------|-------------------|-------------------|
|-2-----------------|-------------------|-------------------|
|-------------------|-2-----------------|-0-----------------|


  ,  .  .  ,  .  .    ,  .  .  ,  .  .    ,  .  .  ,  .  .
|----0-----2-----0--|----0-----4-----0--|----------0--------|
|-------2-----4-----|-------2-----4-----|-------2-----2-----|
|-------------------|-------------------|----2-----------2--|
|-------------------|-------------------|-------------------|
|-4-----------------|-2-----------------|-0-----------------|
|-------------------|-------------------|-------------------|


  ,  .  .  ,  .  .
|-------------------||
|-------------------||
|----------1--------|| Fine.
|-------2-----------||
|----2--------------||
|-0-----------------||
Comments