Simon And Garfunkel - Old Friends - Bookends Live In Central Park Chords & Tabs

 

Old Friends - Bookends Live In Central Park Chords & Tabs

Simon And Garfunkel Chords & Tabs

Version: 1 Type: Tab 0 ratings
1 star 2 stars 3 stars 4 stars 5 stars
comments

Old Friends - Bookends Live In Central Park Tab

   
#----------------------------------PLEASE NOTE---------------------------------#
#This file is the author's own work and represents their interpretation of the #
#song. You may only use this file for private study, scholarship, or research. #
#------------------------------------------------------------------------------#
 
Date: Monday, 29.11.2004
Tabbed by Peter Tuyp(peter.tuyp@wxs.nl)

Subject:
Simon & Garfunkel - Old Friends - Bookends (live Central Park)  

Capo on fourth fret


Intro:
   Fmaj7             Cmaj7             
|--1-----------------0-|
|--2-----------------0-|
|--3-----------------2-|     4 X
|--------------------3-|
|----------------------|

   Fmaj7       Cmaj7      
|--0-------------------|
|--1-----------------0-|
|--2-----------------0-|     2 X
|--3-----------------2-|
|--------------------3-|
|----------------------|
   

Verse:
   Dm7               G7    C     C/B                     Am
|--------0-----1-------------------------------------------------------|
|--3-----------------0-----1-----3-----------------3-----1-----------1-|
|--------0-----2-------------------------------------------------------|
|--3-----------------------------------------2-----------------2-------|
|--------------------------0-----2-----3-----------2-----0-------------|
|--------------------3-------------------------------------------------|
                      

   G     C     C/B   Am    Em7   C     G7                                    
|----------------------------------------------------------------------|
|--0-----1-----3-----1-----0-----1-----0-----------------0-------------|
|--------------------------------------------------0-------------------|
|--------------------------------------------0-------------------------|
|--------0-----2-----0-----2-----0-----------------------------------2-|
|--3-----------------------------------3-----------------------3-------|
 

   Am                                  Em/g
|----------------------------------------------------------------------|
|--------------1-----------------1-----------------0-----------------0-|
|--------------------------------------------0-----------------0-------|
|--------2-----------------2-------------------------------------------|
|--0-----------------0-------------------------------------------------|
|--------------------------------------3-----------------3-------------|
  

   Fmaj7       Cmaj7                         
|--0-------------------------------------------------------------------|
|--1-----------------0-----------------3----------------3--------------|
|--2-----------------0-----------------0----------------0--------------|
|--3-----------------2-----------------2----------------2--------------|
|--------------------3-----------------3----------------3--------------|
|----------------------------------------------------------------------|
 

   Fmaj7             Cmaj7            Dm7               G7    
|--0----------------------------------------0-----1-----1-----3--------|
|--1-----------------0----------------3-----------------------------3--|
|--2-----------------0----------------------0-----2--------------------|
|--3-----------------2----------------3--------------------------------|
|--------------------3-------------------------------------------------|
|-------------------------------------------------3--------------------|
   

   Fmaj7             Em7              Dm7               G7
|--0-----------------0----------------------0-----1--------------------|
|--1-----------------3----------------3-----------------0-----3-----1--|
|--2-----------------0----------------------0-----2--------------------|
|--3-----------------2----------------3--------------------------------|
|--------------------2----------------------------------------2-----0--|
|--------------------0----------------------------------3--------------|
  

   C           C/B   Am            
|--0-------------------------------------------------------------------------------------|
|--------------3-----1-----------1-----------------1-----------------1-----------------1-|
|--------------------------------------------2-----------------2-----------------2-------|
|--------2-----------------2-----------2-----------------------------------2-------------|
|--3-----------2-----0-----------------------------------0-------------------------------|
|----------------------------------------------------------------------------------------|
                       

   G     C     C/B   C     G7                            Am
|----------------------------------------------------------------------------------------|
|--0-----1-----3-----1-----0-----------------------------------------1-----------------1-|
|--------------------------------------------0-----------------2-----------------2-------|
|--------------------------------------0-----------------------------------2-------------|
|--------0-----2-----0-----------0-----------------------0-------------------------------|
|--3-----------------------3-----------------------3-------------------------------------|
   

   G                                    F
|--------------------3------------------0----------------------------------------|
|--0-----------------------0------------1-----------------1----------------------|
|--------------0-----------------0------2-----------2-----------------2----------|
|--------0------------------------------3-----3-----------------3----------------|
|--------------------------------------------------------------------------------|
|--3-----------------------------------------------------------------------------|
   

   Fmaj7             Cmaj7            
|--0---------------------------------------------------------------------|
|--1-----------------0------------------0-----------------0--------------|
|--2-----------2-----0------------------0-----------------0--------------|
|--3-----3-----------2------------------2-----------------2--------------|
|--------------------3------------------3-----------------3--------------|
|------------------------------------------------------------------------|   

   Dm7               G7    C     C/B   C              
|--------0-----1-----------------------0----------------------------------|
|--3-----------------0-----1-----3-----1-----------------------------1----|
|--------0-----2-----------------------------------------------2----------|
|--3-----------------------------------------2----------------------------|
|--------------------------0-----2-----3-----------2-----0----------------|
|--------------------3----------------------------------------------------|
   
[ Tab from: http://www.guitartabs.cc/tabs/s/simon_and_garfunkel/old_friends_bookends_live_in_central_park_tab.html ]
   Em7                                       Cmaj7
|--------------------------------------------------0-----------------0--------|
|--------------0-----------------0-----------------------------0--------------|
|--------0-----------------0-----------------------------0-----------------0--|
|--0-----------------0--------------------------------------------------------|
|--------------------------------------------3--------------------------------|
|--------------------------------------3--------------------------------------|
  

   Dm7               G7    C     C/B    Asus4
|---------------------------------------0-----0-----0-----0--------------|
|--3-----------3-----0-----1-----3------3-----3-----3-----3--------------|
|--2-----2------------------------------2-----2-----2-----2--------------|
|--3------------------------------------2-----2-----2-----2--------------|
|--------------------------0-----2------0-----0-----0-----0--------------|
|--------------------3---------------------------------------------------|
   

   Fmaj7             Cmaj7              Dm7               G7    C     C/B
|--0------------------------------------------0-----1-----1-----3--------|
|--1-----------------0------------------3-----------------------------3--|
|--2-----------------0------------------------0-----2--------------------|
|--3-----------------2------------------3--------------------------------|
|--------------------3------------------------------------------------2--|
|---------------------------------------------------------3--------------|
   

   Am                Em7                Dm7               G7    C     C/B  
|--0-----------------0------------------------0-----1---------------------|
|--1-----------------3------------------3-----------------0-----1-----3---|
|--2-----------------0------------------------0-----2---------------------|
|--2-----------------2------------------3---------------------------------|
|--0-----------------2------------------------------------------0-----2---|
|--------------------0------------------------------------3---------------|
  

    C          C/B   Am               
|--0---------------------------------------------------------------------------|
|--------------3-----1----------1--------------------------------1-------------|
|------------------------------------------------------------------------------|
|--------2-----------------2----------------2-----------2----------------------|
|--3-----------2-----0----------------0-----------2-----------2----------------|
|------------------------------------------------------------------------------|
   Bookends  

                                        
   Dm7                                                                     C     
|--------0-----1-----------0-----1-----------0-----1-----------0-----1-----0-------------|
|--3-----------------3-----------------3-----------------3-----------------------1-------|
|--------0-----2-----------0-----2-----------0-----2-----------0-----2-----0-----------0-|
|--3-----------------3-----------------3-----------------3-----------------------2-------|
|--------------------------------------------------------------------------------------3-|
|----------------------------------------------------------------------------------------|  

   C                 Dm7   F                                         C                                                   
|--------0-----------------------------------------------------------0-------------------|
|--1-----------1-----3-----1-----------------1-----------1h3---1-----------1-----------1-|
|--------0-----------------------2-----------------------------------0-----------0-------|
|--2-----------2-----3-----3-----------3-----------3-----------------------2-----------2-|
|--------------------------------3-----------------------------------------------3-------|
|----------------------------------------------------------------------------------------|

   C
|--------------0-|
|--------1-------|
|--0-----------0-|
|--------2-------|
|--3-------------|
|----------------|

   Dm7                                                                     C     
|--------0-----1-----------0-----1-----------0-----1-----------0-----1-----0-------------|
|--3-----------------3-----------------3-----------------3-----------------------1-------|
|--------0-----2-----------0-----2-----------0-----2-----------0-----2-----0-----------0-|
|--3-----------------3-----------------3-----------------3-----------------------2-------|
|--------------------------------------------------------------------------------------3-|
|----------------------------------------------------------------------------------------|
  

   C                 Dm7   F                                         C     
|--------0-----------------------------------------------------------0-------------------|
|--1-----------1-----3-----1-----------------1-----------3-----1-----------1-----------1-|
|--------0-----------------------2-----------------------------------0-----------0-------|
|--2-----------2-----3-----3-----------3-----------3-----------------------2-----------2-|
|--------------------------------3-----------------------------------------------3-------|
|----------------------------------------------------------------------------------------|
   

   C
|--------------0-|
|--------1-------|
|--0-----------0-|
|--------2-------|
|--3-------------|
|----------------|

   Dm7                                                                     C     
|--------0-----1-----------0-----1-----------0-----1-----------0-----1-----0-------------|
|--3-----------------3-----------------3-----------------3-----------------------1-------|
|--------0-----2-----------0-----2-----------0-----2-----------0-----2-----0-----------0-|
|--3-----------------3-----------------3-----------------3-----------------------2-------|
|--------------------------------------------------------------------------------------3-|
|----------------------------------------------------------------------------------------|
  

   C                 Dm7   F                                         C     
|--------0-----------------------------------------------------------0-------------------|
|--1-----------1-----3-----1-----------------1-----------3-----1-----------1-------------|
|--------0-----------------------2-----------------------------------0-------------------|
|--2-----------2-----3-----3-----------3-----------3-----------------------2-------------|
|--------------------------------3-------------------------------------------------------|
|----------------------------------------------------------------------------------------|
 

   C
|--------------0-|
|--------1-------|
|--0-----------0-|
|--------2-------|
|--3-------------|
|----------------|

   Dm7                                                                     C
|--------0-----1-----------0-----1-----------0-----1-----------0-----1-----0-------------|
|--3-----------------3-----------------3-----------------3-----------------------1-------|
|--------0-----2-----------0-----2-----------0-----2-----------0-----2-----0-----------0-|
|--3-----------------3-----------------3-----------------3-----------------------2-------|
|--------------------------------------------------------------------------------------3-|
|----------------------------------------------------------------------------------------|
Comments