Simon And Garfunkel - Mrs Robinson Chords & Tabs

 

Mrs Robinson Chords & Tabs

Simon And Garfunkel Chords & Tabs

Version: 2 Type: Bass Tab 0 ratings
1 star 2 stars 3 stars 4 stars 5 stars
comments

Mrs Robinson Bass Tab

Mrs. Robinson
By Simon and Garfunkle

I thought we could use an oldie. If it's not perfect I'm sorry...but what can
I say. I tried.

It starts out like this:

G[----------------------------------------------------------------
D[--4-------2----4---------2-------4-----------------------------
A[-----4--------------4------------------------------------------
E[----------------------------------------------------------------

That repeats for I think six times, then it goes like this:

G[----------------------------------------------------------------
D[-----------------4---4--------------------------4----4---------
A[-4---3----2--------------2----2----2----2---------------2-----
E[----------------------------------------------------------------

Then this:

G[-----------------------1----2----4---6---7---6---4-------4-----
D[-------1---2-----4------------------------------------4-------4-
A[---4------------------------------------------------------------
E[-----------------------------------------------------------------
[ Tab from: http://www.guitartabs.cc/tabs/s/simon_and_garfunkel/mrs_robinson_btab_ver_2.html ]
G[-------------------------------------1---4---------------------
D[--4----4-----4-----4-----2----4-------------------------------
A[---------------------------------------------------------------
E[---------------------------------------------------------------

And now the chorus:

G[--2------------------2--------------------7----6----4-----2----
D[-------2----4-------------2----4-------------------------------
A[-----------------4-------------------4-------------------------
E[----------------------------------------------------------------

G[---9-----7----6----4------2-----------------2------------------
D[--------------------------------2----4-----------2----4--------
A[-----------------------------------------4-----------------4---
E[---------------------------------------------------------------

G[---7---6---4---2---4---2---1-----------------------------------
D[----------------------------------------------------------------
A[----------------------------------------------------------------
E[----------------------------------------------------------------

And then go back to the beginning and repeat until the song is over.

Have fun!! And remember: DMB rules!!

        Little Sarah       <'))><
Comments