Simon And Garfunkel - El Condor Pasa Chords & Tabs

 

El Condor Pasa Chords & Tabs

Simon And Garfunkel Chords & Tabs

Version: 1 Type: Tab 0 ratings
1 star 2 stars 3 stars 4 stars 5 stars
comments

El Condor Pasa Tab

   
I looked all around the net, and I didn’t find the tabs for 
“El condor Pasa”, there are only the chords. 
So I’m giving you this tabs, that I had found myself by listening 
the song, and I think that they're correct.

“El Condor Pasa”
 

INTRO, and then this is played:

 

Guitar 1:

E-||----------------------------------------------||
B-||-0--5--4--5--7---8--7--8--10--12-(hold)-------||
G-||----------------------------------------------||
D-||----2--1--2--4---5--4--5---7---9-(hold)-------||
A-||-2--------------------------------------------||
E-||----------------------------------------------||

     

 

Guitar 1:                                                                                                   Em                             Em
[ Tab from: http://www.guitartabs.cc/tabs/s/simon_and_garfunkel/el_condor_pasa_tab.html ]
E-||-12-12--12-10--7-xxx--12--12--12--10--7-xxx-5-5-5-3--0-xxx--tr ~~3---tr~-0--||
B-||-13-13--13-12--8-xxx--13--13--13--12--8-xxx-7—7-7-5--0-xxx--tr ~~5---tr~-0--||
G-||--9--9---9--7--444-----9---9---9---7--4-----2-2-2-0--0-xxx--tr ~~4---tr~-0--||
D-||-10-10--10--9--555----10--10--10---9--5-----4-4-4-2—-2-xxx--tr ~~5---tr~-2--||
A-||-----------------------------------------------------2-xxx-----------tr~-2--||
E-||-----------------------------------------------------0-xxx-----------tr~-0--||
|
|     
|
|
Guitar 2:

                 G                                     Em

E-||-----------------3-----3-----3---3--------------------0---0-----0---0---0--////
B-||-----------------3-----3-----3---3--------------------0---0-----0---0---0--////
G-||-----------------0-----0-----0---0--------------------0---0-----0---0---0--////
D-||-----------------0-----0-----0---0--------------------2---2-----2---2---2--////
A-||--------------2-----------2------------------------2---------2--------2----////
E-||--------------------3----------3--and you repeat until--0---------0--------////

 

And then you change Em to G

The CHORUS is played with C and then change it with G 

 

And it goes on, just like this.
 

Mail me at:
          davor_mk2001@yahoo.com

                        tabed by Davor Stojanovski

 

 
Comments